DON'T WANNA FALL IN LOVE (solo) - Green Day

Tabbed by: *krap niknil*
Email: [email protected]

This is my first tab...

e|-------------------------------------------------------------------------|
B|--0----0-2-0-0---0-0-0-2-0---0---0---0-2-0-0---0-0-0-2-0--0-0-0-2-0---0--|
G|----1----------1-----------1-------1---------1-----------1----------1----|
D|-------------------------------------------------------------------------|
A|-------------------------------------------------------------------------|
E|-------------------------------------------------------------------------|

e|------------------------7-6-5-4------------------------------------------|
B|-------2-5-8-7-5-1-0-----------------------------------------------------|
G|-2-2-2-------------------------------------------------------------------|
D|-------------------------------------------------------------------------|
A|-------------------------------------------------------------------------|
E|-------------------------------------------------------------------------|




Ваше мнение



Капча