green day
disappearing boy
39/smooth
standard tuning
opening:
|-----------------------------------------------|
|-------------------------------------3-3-3-3-3-|
|-------------------------------------2-2-2-2-2-|
|-------2-----------4-----------5-----0-0-0-0-0-|
|-0-0-0---0-0-------4-4-4---------5-5-----------|
|-------------2-2-2---2-2-3-3-3---3-3-----------|
|-PM--| |----PM---| |--PM-|
|------------------------------------------------------|
|-------------------------------------------------3----|
|-2-2-2-2-2-2-2-2---------------------------------2----|
|-2-2-2-2-2-2-2-2-4-4-4-4-4-4-4-4-3-3-3-3-3-3-3-3-0etc-|
|-0-0-0-0-0-0-0-0-4-4-4-4-4-4-4-4-3-3-3-3-3-3-3-3------|
|-----------------2-2-2-2-2-2-2-2-3-3-3-3-3-3-3-3------|
the verses are the same as the 2nd part of the opening
chorus:
|-------------------------|
|-3-3-3-3-----------------|
|-4-4-4-4--5-5-5-5--4-----|
|-4-4-4-4--5-5-5-5--5-----|
|-2-2-2-2--3-3-3-3--5-----|
|-------------------3etc--|x4
bridge:
|---0-------0-----------0---------0-------|
|-3---3-------3-----------3---------3-----|
|-2-------------0---0---------0-----------|
|-0---------------------------------------|
|-------3-3-------2---2-----0---0-----0-0-|
|-----------------------------------------|
|-hold|--hold---|--hold---|---hold------|
----2h3p2---------0-----------0--------------|
----------3---------3-----------3-------3----|
-2----------0---------0---0------------------|
-0-0--------------------------------2-----2--|
--------------3-3-------2---2-----0---0------|
---------------------------------------------|x2
|----hold----|---hold--|-hold----|---hold----|
|-2-----3-----3---------------------|
|-3-----3-----3---------------------|
|-2-----0-----0-----2-2-2-2-2-2-2-2-|
|-0hold-x-----x-----2-2-2-2-2-2-2-2-|
|-------3hold-2hold-0-0-0-0-0-0-0-0-|
|-----------------------------------|
fill:
|----------|
|-------3--|
|-2-----2--|
|-2-4-5-0--|
|-0-4-5----|x4/play each note 8 times
|---2-3----|
chorus x4




Ваше мнение



Капча