Tabbed By: Chris
Band:Green Day
Song:Desensitized
Album:Shenanigans (2002 Reprise Records)
Guitar I:Billie Joe Armstrong
Guitar II:Billie Joe Armstong or Mike Dirnt
Track:2
Note:I already tabbed this song but I didn't include the guitar
fill or the any of 2nd guitar's stuff. Gtr. 2 is cleaner.
Key:
pm-Palm mute
x-Mute
*-Slight harmonics
(bell ringing, Mike Dirnt smashing things with baseball bat)
Gtr. I
Intro/Verse:
G5 C5 G5
e----------------|
b----------------|
g-------5-5-5----|
D---555-5-5-55---|(x8)
A---555-3-3-35---|
E---333------3---|
Gtr. I
Pre-Chorus:
E5 G5 E5 G5
e---------------------------------------------------------------------|
b---------------------------------------------------------------------|
g---------------------------------------------------------------------|
D---2-2-2-2-2-2-2-2-5-5-5-5-5-5-5-5-2-2-2-2-2-2-2-2-5-5-5-5-5-5-5-5---|
A---2-2-2-2-2-2-2-2-5-5-5-5-5-5-5-5-2-2-2-2-2-2-2-2-5-5-5-5-5-5-5-5---|
E---0-0-0-0-0-0-0-0-3-3-3-3-3-3-3-3-0-0-0-0-0-0-0-0-3-3-3-3-3-3-3-3---|
Gtr. II plays Gtr. I only palm muted for Pre-Chorus and Chorus.
Gtr. I
Chorus:
A5 F5 A5 F5
e---------------------------------------------------------------------|
b---------------------------------------------------------------------|
g---------------------------------------------------------------------|
D---7-7-7-7-7-7-7-7-3-3-3-3-3-3-3-3-7-7-7-7-7-7-7-7-3-3-3-3-3-3-3-3---|
A---7-7-7-7-7-7-7-7-3-3-3-3-3-3-3-3-7-7-7-7-7-7-7-7-3-3-3-3-3-3-3-3---|
E---5-5-5-5-5-5-5-5-1-1-1-1-1-1-1-1-5-5-5-5-5-5-5-5-1-1-1-1-1-1-1-1---|

C5 G5 F5
e-----------------------------------------------------|
b-----------------------------------------------------|
g---5-5-5-5-------------------------------------------|
D---5-5-5-5-5-5-5-5-3-3-3-3-3-3-3-3-3-3-3-3-3-3-3-3---|
A---3-3-3-3-5-5-5-5-3-3-3-3-3-3-3-3-3-3-3-3-3-3-3-3---|
E-----------3-3-3-3-1-1-1-1-1-1-1-1-1-1-1-1-1-1-1-1---|
Verse x6
Gtr. II
Verse:
G5
e-------|
b-------|
g-------|
D---5---|(x24)
A---5---|
E---3---|
pm------|
Gtr I plays the verse chords 4x
Pre-Chorus x1
Chorus x1
Gtr. I and Gtr. II(Pm)
Interlude(verse lyrics):
G5 C5 G5
e------------------------|
b------------------------|
g-------5-5-5------------|
D---555-5-5-55-5-5-5-5---|(x6)
A---555-3-3-35-5-5-5-5---|
E---333------3-3-3-3-3---|
Pre-Chorus x1
Chorus x1
Gtr. I Verse x2
Gtr II
Guitar Fill:
e----------|
b-----4----|
g---x-3*---|
D----------|
A----------|
E----------|
Gtr. I Verse x2
That's it! Enjoy!
===========Green Day - Desensitized (B-side to Good Riddance (Time of Your Life)
Tabbed By: Daniel Taylor
EMail: [email protected]
Standard Tuning
Main riff/Verses
G5 C5 G5
e--------------------------
B--------------------------
G----------5-5-5-----------
D---5-5-5--5-5-5--5--------
A---5-5-5--3-3-3--5--------
E---3-3-3---------3--------
Pre-Chorus
E5 G5 E5 G5
e-------------------
B-------------------
G--9-------9--------
D--9---5---9---5----
A--7---5---7---5----
E------3-------3----
Chorus
Am F Am F C5 G5 F
e------0-------0-----------0---
B--1---1---1---1-----------1---
G--2---2---2---2---5-------2---
D--2---3---2---3---5---5---3---
A------------------3---5-------
E----------------------3-------
That it. Convert them to power chords if you wish, not exactly
hard to do.




Ваше мнение



Капча