green day - dead beat holiday
h = hammer-on
p = pull-off
b = bend
/ = slide up
= slide down
5 = power chord
Verse (x2) (PM until C5)
G5 D5 G5 C5 G5 E5 C5 D5
e|---------------------------------------------------------------|
B|---------------------------------------------------------------|
G|------7----5----5--------------5----7--------------------------|
D|-5----7----5----5----5----2----5----7--------------------------|
A|-5----5----5----3----5----2----3----5--------------------------|
E|-3---------3---------3----0------------------------------------|
Pre-Chorus
B5 C5 G5 C5 G5 E5 B5 C5 D5
e|---------------------------------------------------------------|
B|-----------------------------------------------8--8-7----------|
G|-4----5---------5------------4----5----7--5--5-----------------|
D|-4----5----5----5--5----2----4----5----7-----------------------|
A|-2----3----5----3--5----2----2----3----5-----------------------|
E|-----------3-------3----0--------------------------------------|
Chorus (x2)
G5 D5 E5 G5 E5 G5 F5 D5
e|---------------------------------------------------------------|
B|---------------------------------------------------------------|
G|------7----9---------9--------------7--------------------------|
D|-5----7----9----5----9----5----3----7--------------------------|
A|-5----5----7----5----7----5----3----5--------------------------|
E|-3--------------3---------3----1-------------------------------|
Bridge
e|---------------------------------------------------------------|
B|---------------8--8-7------------------------------------------|
G|-7-7-7--7-5--5--------(x8)-------------------------------------|
D|---------------------------------------------------------------|
A|---------------------------------------------------------------|
E|---------------------------------------------------------------|
Order
Verse 1
Pre-Chorus 1
Chorus
Verse 2
Pre-Chorus 1
Chorus
Bridge
Pre-Chorus 2
Chorus x2
End on D5, G5
Lyrics
Wake up, the house is on fire
And the cat's caught in the dryer
Philosophy's a liar when
Your home is your headstone (Verse 1)
Icon is the last chance for hope
When there's no such thing as heroes
Your faith lies in the ditch
That you dug yourself in
Last chance to piss it all away
Nothing but hell to pay (Pre-Chorus 1)
When the lights are going down
Deadbeat holiday, celebrate your own decay
There's a vacant sign that's hanging high
On a noose over your home (Chorus)
Deatbeat holiday, get on your knees and pray
There's a vacant sign that's hanging high
But at least you're not alone
Christmas lights in the middle of August
Grudges come back to haunt us
Your oldest allies (Verse 1)
Are your long lost enemies
Grounded in a duplex to find
That you're living on a landmine
Vacation hotspots
Is a cemetary drive
(Pre-Chorus 1)
(Chorus)
(Bridge)
Last chance to piss it all away
Nothing but hell to pay (Pre-Chorus 2)
When all you wanna do
Is not to give up
(Chorus x2)


Ваше мнение



Капча