Green Day Comming clean.
Tabbed by Dan [email protected]

Comming clean By Green Day

played half step dwn/ Rock on man!!!

intro:

E:------------:
B:------------:
G:--4---------:
D:--4--6------:
A:--2--6------:
E:-----4------:

Main Riff:

E------------------------------------:
B------------------------------------:
G-4-X-X-4-X-4-4-4-4------------------: play 2X
D-4-X-X-4-X-4-4-4-4-6-X-X-6-X-6-6-6-6:
A-2-X-X-2-X-2-2-2-2-6-X-X-6-X-6-6-6-6:
E-------------------4-X-X-4-X-4-4-4-4:

chorus:

add at end of main riff

E:----------------------------------:
B:----------------------------------:
G:----------------------------------: play 2x
D:-4-4-4-4-4-4-4-4--2-2-2-2-2-2-2-2-:
A:-4-4-4-4-4-4-4-4--2-2-2-2-2-2-2-2-:
E:-2-2-2-2-2-2-2-2--0-0-0-0-0-0-0-0-:

Outro:

play the chorus
then add at the end

E:----:
B:----:
G:--4-:
D:--4-: let ring
A:--2-:
E:----:




Ваше мнение



Капча