tabbed by: Mike Italia
E----------------------------------------
B----------------------------------------
G-----------------------7-7-7-7--9-9-9-9-
D--7-7-7-7-7-7-7-7-7-7--7-7-7-7--9-9-9-9-
A--7-7-7-7-7-7-7-7-7-7--5-5-5-5--7-7-7-7-
E--5-5-5-5-5-5-5-5-5-5-----------0-0-0-0-
E----------------------------------------
B----------------------------------------
G--------------------9-9-9-9-9-9-9-9-9-9-
D--4-4-4-4--7-7-7-7-9-9-9-9-9-9-9-9-9-9- X2
A--4-4-4-4--7-7-7-7-7-7-7-7-7-7-7-7-7-7-
E--2-2-2-2--5-5-5-5---------------------
E--------------------------------------
B--------------------------------------
G-------------------7-7-7-7--9-9-9-9---
D--7-7-7-7-7-7-7-7--7-7-7-7--9-9-9-9--- X3
A--7-7-7-7-7-7-7-7--5-5-5-5--7-7-7-7---
E--5-5-5-5-5-5-5-5-----------0-0-0-0---
E--------------------------------------
B--------------------------------------
G--------------------------------------
D--7-7-7-7-7-7-7-7-7-7-7-7-7-7-7-7~----
A--7-7-7-7-7-7-7-7-7-7-7-7-7-7-7-7~----
E--5-5-5-5-5-5-5-5-5-5-5-5-5-5-5-5~----
Pm............
Middle Jam:
A D E
E--------------------------------------
B--2-2-2-2-2-2-2-2-2--7-7-7-7--9-9-9-9-
G--2-2-2-2-2-2-2-2-2--7-7-7-7--9-9-9-9-
D--2-2-2-2-2-2-2-2-2--7-7-7-7--9-9-9-9- X5
A--0-0-0-0-0-0-0-0-0--5-5-5-5--7-7-7-7-
E------------------------------0-0-0-0-
Chorus:
F# A E
E----------------------------------------
B----------------------------------------
G--------------------9-9-9-9-9-9-9-9-9-9-
D--4-4-4-4--7-7-7-7-9-9-9-9-9-9-9-9-9-9- X2
A--4-4-4-4--7-7-7-7-7-7-7-7-7-7-7-7-7-7-
E--2-2-2-2--5-5-5-5---------------------
Post-Chorus:
___
A D E
E--------------------------------------
B--------------------------------------
G-------------------7-7-7-7--9-9-9-9---
D--7-7-7-7-7-7-7-7--7-7-7-7--9-9-9-9--- X3
A--7-7-7-7-7-7-7-7--5-5-5-5--7-7-7-7---
E--5-5-5-5-5-5-5-5-----------0-0-0-0--- |
|X2
E-------------------------------------- |
B-------------------------------------- /
G-------------------------------------- /
D--7-7-7-7-7-7-7-7-7-7-7-7-7-7-7-7~---- /
A--7-7-7-7-7-7-7-7-7-7-7-7-7-7-7-7~---- /
E--5-5-5-5-5-5-5-5-5-5-5-5-5-5-5-5~---- /
Pm............... ___/

A D E
E--------------------------------------
B--2-2-0-2-2-3-2-0-2--7-7-7-7--9-9-9-9-
G--2-2-2-2-2-2-2-2-2--7-7-7-7--9-9-9-9-
D--2-2-2-2-2-2-2-2-2--7-7-7-7--9-9-9-9- X4
A--0-0-0-0-0-0-0-0-0--5-5-5-5--7-7-7-7-
E--------------------------------------
E--------------------------------------
B--2~-------------7~----9~-------------
G--2~-------------7~----9~-------------
D--2~-------------7~----9~-------------
A--0~-------------5~----7~-------------
E--------------------------------------
E--------------------------------------
B--2~-------------7~-------------------
G--2~-------------7~----2-2--2-2--2~---
D--2~-------------7~----2-2--2-2--2~---
A--0~-------------5~----2-2--2-2--2~---
E-----------------------0-0--0-0--0~---
A D E
E--------------------------------------
B--------------------------------------
G-------------------7-7-7-7--9-9-9-9---
D--7-7-7-7-7-7-7-7--7-7-7-7--9-9-9-9--- X3
A--7-7-7-7-7-7-7-7--5-5-5-5--7-7-7-7---
E--5-5-5-5-5-5-5-5-----------0-0-0-0---
E--------------------------------------
B--------------------------------------
G--------------------------------------
D--7-7-7-7-7-7-7-7-7-7-7-7-7-7-7-7~----
A--7-7-7-7-7-7-7-7-7-7-7-7-7-7-7-7~----
E--5-5-5-5-5-5-5-5-5-5-5-5-5-5-5-5~----
Pm............
A D E
E--------------------------------------
B--------------------------------------
G-------------------7-7-7-7--9-9-9-9---
D--7-7-7-7-7-7-7-7--7-7-7-7--9-9-9-9--- X3
A--7-7-7-7-7-7-7-7--5-5-5-5--7-7-7-7---
E--5-5-5-5-5-5-5-5-----------0-0-0-0---
E--------------------------------------
B--------------------------------------
G--------------------------------------
D--7-7-7-7-7-7-7-7-7-7-7-7-7-7-7-7~---- X2
A--7-7-7-7-7-7-7-7-7-7-7-7-7-7-7-7~----
E--5-5-5-5-5-5-5-5-5-5-5-5-5-5-5-5~----
Pm............
E--------------------------------------
B--------------------------------------
G--------------------------------------
D--7-7-7-7-7-7-7-7-7-7-7-7-7-7-7-9~----
A--7-7-7-7-7-7-7-7-7-7-7-7-7-7-7-9~----
E--5-5-5-5-5-5-5-5-5-5-5-5-5-5-5-7~----
Tab dedicated to my girl Val!




Ваше мнение



Капча