Standard Tuning (ie EADGBE)
Intro:
=20
e|--------------------------------------------------|
B|--------------------------------------------------|
G|-x-x7-x-7-x-7-xx--------xx----------------7-------|
D|-x-x9-x-9-x-9-xx--9---9-xx--5-x-5-x-5-x-x-9-------| =20
A|-x-x9-x-9-x-9-xx-11--11-xx--7-x-7-x-7-x-x-9-------|
E|--------------xx-11--11-xx--7-x-7-x-7-x-x---------|
Verse: The exact same as the intro

im on a mission...
=20
e|----|-----------------------------------|
B|----|-----------------------------------|
G|----|--x-7-x-7-x-6-/-7------------------|
D|-5--|--x-9-x-9-x-8-/-9-----X2-----------| =20
A|-7--|--x-9-x-9-x-8-/-9------------------|
E|-7--|-----------------------------------|
=20
e|----|-------------------|
B|----|-------------------|
G|----|-------------------|
D|-4--|-7-----------------| x 1
A|-7--|-9-----------------|
E|-7--|-9-hold this chord-|
Chorus: is the same as the intro
=20
lost and found...
e|---|---|
B|---|---|
G|---|---|
D|-5-|-7-| Hold these !!
A|-7-|-9-|
E|-7-|-9-|




Ваше мнение



Капча