#----------------------------------PLEASE NOTE---------------------------------#
#This file is the author's own work and represents their interpretation of the #
#song. You may only use this file for private study, scholarship, or research. #
#------------------------------------------------------------------------------#
Green Day
Brainstew
by Brian S.
Intro :
e-------------------------------------------------|
b-------------------------------------------------|
g-------------------------------------------------|
d---7--7-----5--5----4--4---3--3--2--2------------|
a---7--7-----5--5----4--4---3--3--2--2------------|
e---5--5-----3--3----2--2---1--1--0--0------------|
e-------------------------------------------------|
b-------------------------------------------------|
g-------------------------------------------------|
d---7--7-xxx----5--5-xxx---4--4-xxx--3--3--2--2---|
a---7--7-xxx----5--5-xxx---4--4-xxx--3--3--2--2---|
e---5--5-xxx----3--3-xxx---2--2-xxx--1--1--0--0---|
Play all these at 14th fret (the x's)




Ваше мнение



Капча