#----------------------------------PLEASE NOTE---------------------------------#
#This file is the author's own work and represents their interpretation of the #
#song. You may only use this file for private study, scholarship, or research. #
#------------------------------------------------------------------------------#
#
From [email protected] Wed Apr 16 10:50:54 1997
Date: Sat, 5 Apr 1997 22:31:55 -0800
From: raff family
To: [email protected]
Subject: TAB: Brain Stew by Green day!!
tune 1/4 step down
This is pretty much the whole song repeated a bunch of times
--------------------------------------------------------[[------------------
---------------------------------
--------------------------------------------------------[[------------------
---------------------------------
--------------------------------------------------------[[------------------
---------------------------------
--------------------------------------------------------[[------------------
---------------------------------
--7--7-------5--5-------4--4-----3--3-----2--2------[[--7--7-------5--5-----
--4--4-----3--3-----2--2-
--5--5-------3--3-------2--2-----1--1-----0--0------[[--5--5-------3--3-----
--2--2-----1--1-----0--0-
I figured this out while I was home with chicken pocks




Ваше мнение



Капча