Green Day – Ramones cover of Blitzkrieg Bop live
Tabbed by Josh ([email protected])

I downloaded this song from Kazaa at my friend’s house and he burned on to a cd
for me it pretty good so I decided to tab it out. It’s kinda different then the
real ramones version though.

Intro
G---------------
D---------------
A---------5-7-7-
E-5-5-5-5-------

This is the part where the crowd says “Hey ho lets go!”
G------------------
D------------------
A----5-7-5---5-7-5-
E-5--------5-------

Verse
G-----------------
D-----------------
A---------5-5-7-7-
E-5-5-5-5---------

Chorus
G---------
D---------
A---5-7-5-
E-5-------

I think it goes back to the verse and then closes with the “hey ho lets go thingy”




Ваше мнение



Капча