standard tuning
*=harmonics
|=palm mute
(intro)

E-------------------------------------------------------
B--|-|----|-|----|-|----|-|----|-|----|-|---------------
G--7-7-7--5-5-5--7-7-7--5-5-5--7-7-7--5-5-5--4-4-4-4-4--
D--7-7-7--5-5-5--7-7-7--5-5-5--7-7-7--5-5-5--4-4-4-4-4--
A--5-5-5--3-3-3--5-5-5--3-3-3--5-5-5--3-3-3--2-2-2-2-2--
E-------------------------------------------------------
E-------------------------------------------------------
B--|-|----|-|----|-|----|-|----|-|----|-|---------------
G--7-7-7--5-5-5--7-7-7--5-5-5--7-7-7--5-5-5--4-4-4-4-4--
D--7-7-7--5-5-5--7-7-7--5-5-5--7-7-7--5-5-5--4-4-4-4-4--
A--5-5-5--3-3-3--5-5-5--3-3-3--5-5-5--3-3-3--2-2-2-2-2--
E-------------------------------------------------------
E-----------------------------
B-----------------------------
G-------------4-----5------7--
D-------5---4-----5------7----




Ваше мнение



Капча