Intro: Ab Db Gb Db Ab Gb > 4 times
Ab Db Gb Db Ab Gb
Don\'t wanna be an American idiot.
Ab Db Gb Db Ab
Don\'t want a nation that under the new media.
And can you hear the sound of hysteria?
The subliminal mindfuck America.
Db
Welcome to a new kind of tension.
Ab
All across the alien nation.
Eb Ab
Everything isn\'t meant to be okay.
Db
Television dreams of tomorrow.
Ab
We\'re not the ones who\'re meant to follow.
Eb
Convincing them to walk you.
Bridge: Ab Db Gb Db Ab Gb
Ab Db Gb Db Ab
Well maybe I\'m the faggot America.
I\'m not a part of a redneck agenda.
Now everybody do the propaganda.
And sing along in the age of paranoia.
Chorus
Bridge > 2 times
Solo:
E|----------------------------------------------------------------------|
H|----------------------------------------------------------------------|
G|--10-10-10-10-10-10-8--6-----8-8-8-8--10-8--6--5--3-3-3-3h5-6-5\3-3---|
D|--x--x--x--x--x--x--x--x-----x-x-x-x--x--x--x--x----------------------|
A|--8--8--8--8--8--8--6--4-----6-6-6-6--8--6--4--3----------------------|
E|----------------------------------------------------------------------|
E|---------------------------8--------11--------|
H|--------9--------11------------------------9--|
G|--8--8-----8--8------8--8-----8--8------8-----|
D|----------------------------------------------|
A|----------------------------------------------|
E|----------------------------------------------|
E|--------------------------------------------------------------------------|
H|-----------------------------------------------------------------------9--|
G|--10-10-10-10-10-10-8--6-----8-8-8-8--10-8--6--5--3-3-3-3h5-6-5\3-3/8-----|
D|--x--x--x--x--x--x--x--x-----x-x-x-x--x--x--x--x--------------------------|
A|--8--8--8--8--8--8--6--4-----6-6-6-6--8--6--4--3--------------------------|
E|--------------------------------------------------------------------------|
Bridge
Ab Db Gb Db Ab Gb
Don\'t wanna be an American idiot.
Ab Db Gb Db Ab
One nation controlled by the media.
Information nation of hysteria.
(no chords)
It\'s going out to idiot America.
Chorus




Ваше мнение



Капча