ALL THE TIME
GREEN DAY
Tabbed by: KoRny Freak ([email protected])
intro/chorus
|------------|-------------|
|------------|-------------|
|-9-9--7-----|-9-9-9-9-9-9-|
|-9-9--7--7--|-9-9-9-9-9-9-|
|-7-7--5--7--|-7-7-7-7-7-7-|
|---------5--|-------------|
verse
|---------------------------------------|
|---------------------------------------|
|---------------------------7-7-7-7-7-7-|
|-6/7-7-7-7-7-7-5-5-5-5-5-5-7-7-7-7-7-7-|
|-6/7-7-7-7-7-7-5-5-5-5-5-5-5-5-5-5-5-5-|
|-4/5-5-5-5-5-5-3-3-3-3-3-3-------------|
bridge
|------------------|
|------------------|
|---6-7-6----4-5-4-|
|-7-6-7-6--5-4-5-4-|
|-7-4-5-4--5-2-3-2-|
|-5--------3-------|
If you have any questions or comments, email me at
[email protected]
[email protected]________
Get Your Private, Free E-mail from MSN Hotmail at http://www.hotmail.com.




Ваше мнение



Капча