#----------------------------------PLEASE NOTE---------------------------------#
#This file is the author's own work and represents their interpretation of the #
#song. You may only use this file for private study, scholarship, or research. #
#------------------------------------------------------------------------------##
SAVE ALL YOUR LOVE
As recorded by Great White
(From the 1987 Album ONCE BITTEN)
Words by Jack Russell
Music by Mark Kendall
Transcribed by Rhett Cutshaver
E5 C5 F#5 G5
0 2 2 x x x x 3 5 x x x 2 4 4 x x x 3 5 5 x x x
A5 F5 D5 B5
x 0 2 2 x x 1 3 3 x x x x x 0 2 3 x x 2 4 4 x x
Gmaj7/B
x 2 4 0 x x
Gtr I (E A D G B E) Acoustic
Gtr II (E A D G B E) Electric
Gtr III (E A D G B E) Acoustic
Intro
Q=110
4/4
Gtr I
|-----------------|-----------------|-----------------|------------------|
|-----------------|-----------------|-----------------|------------------|
|---------0-------|---------0-------|---------0-------|---------0--------|
|-----4-------4---|-----4-------4---|-----4-------4---|-----4-------4----|
|---2---2---2---2-|---2---2---2---2-|---2---2---2---2-|---2---2---2---2--|
|-0---------------|-0---------------|-0---------------|-0----------------|
|---------0-------|---------0-------|---------0-------|-----------------|
|-----------0-----|-----------1-----|-----------0-----|-----------------|
|-----0-------0---|-----0-------0---|-----2-------2---|-----0-----0-----|
|-2-----2---------|---2---2-------2-|---0---0-------0-|---0-----0-------|
|-2-2-----------2-|-3---------------|-----------------|-----------------|
|-0---------------|-----------------|-2---------------|-3-----3-----2-3-|
|---------0-------|---------0-------|---------0-------|-----------------|
|-----------0-----|-----------1-----|-----------0-----|-----------------|
|-----0-------0---|-----0-------0---|-----2-------2---|-----0-------2---|
|-2-----2---------|---2---2-------2-|---0---0-------0-|---0---0---2---2-|
|-2-2-----------2-|-3---------------|-----------------|---------0-------|
|-0---------------|-----------------|-2---------------|-3---------------|
Verse
|-----------------|-----------------||---------0-------|-----------------|
|-----------------|-----------------||o------0---0-----|---0---0---0---0-|
|---------0-------|---------0-------||-----0-------0---|-----0-------0---|
|-----4-------4---|-----4-------4---||--2------------2-|-1-------2-------|
|---2---2---2---2-|---2---2---2---2-||o----------------|-----------------|
|-0---------------|-0---------------||-----------------|-----------------|
|---------0-------|-----------------|---------0-------|---------0-------|
|-----------0-----|-----0-----------|-----------0-----|-----------0-----|
|-----0-------0-0-|---0---0---------|-----2-------2---|-----2-------2---|
|---2---2---------|-----------------|---2---2-------2-|---2---2-------2-|
|-3---------------|-3-------2-3-2---|-0---------------|-0---------------|
|-----------------|---------------3-|-----------------|-----------------|
Pre-Chorus
1. 2.
|---------0-------|-------------||-----------||---------0-------|
|-----------0-----|------------o||-----------||-----------0-----|
|-----0-------0---|-------------||-----------||-----2-------2---|
|---4---4-------4-|-------------||-----------||---2---2-------2-|
|-2---------------|-2------2/--o||-2---------||-0---------------|
|-----------------|-------------||---------3-||-----------------|
|---------0-------|---------0-------|---------0-------|---------0-------|
|-----------0-----|-----------0---0-|---0---0---0---0-|-----------0-----|
|-----0-------0---|---4-0-4-----0---|-----0-------0---|-----2-------2---|
|---4---4-------4-|-2---------------|-0---------------|---2---2-------2-|
|-2---------------|-----------------|-----------------|-0---------------|
|-----------------|-----------------|-----------------|-----------------|
|---------0-------|-----------------|---------0-------|---------0-------|
|-----------0-----|---0---0---0---0-|-----0-----0---0-|-----0-----0---0-|
|-----0-------0---|-----0-------0---|---0---0-----0---|---0---0-----0---|
|---4---4-------4-|-2-------0-------|-----------------|-----------------|
|-2---------------|-----------------|-4---------------|-3---------------|
|-----------------|-----------------|-----------------|-----------------|
Chorus
|----------||---------0-------|---------0-------|
|----------||-----------0-----|-----------1-----|
|----------||-----0-------0---|-----0-------0---|
|----------||-2-----2---------|---2---2-------2-|
|-3--------||-2-2-----------2-|-3---------------|
|----------||-0---------------|-----------------|
|---------0-------|-----------------|
|-----------0-----|-----------------|
|-----2-------2---|-----0-----0-----|
|---0---0-------0-|---0-----0-------|
|-----------------|-----------------|
|-2---------------|-3-----3-----2-3-|
|---------0-------|---------0-------|---------0-------|-----------------||
|-----------0-----|-----------1-----|-----------0-----|-----------------||
|-----0-------0---|-----0-------0---|-----2-------2---|-----0-------2---||
|-2-----2---------|---2---2-------2-|---0---0-------0-|---0---0---2---2-||
|-2-2-----------2-|-3---------------|-----------------|---------0-------||
|-0---------------|-----------------|-2---------------|-3---------------||
Verse 2
|-----------------|-----------------||--------0-------|-----------------|
|-----------------|-----------------||------0---0-----|---0---0---0---0-|
|---------0-------|---------0-------||----0-------0---|-----0-------0---|
|-----4-------4---|-----4-------4---||-2------------2-|-1-------2-------|
|---2---2---2---2-|---2---2---2---2-||----------------|-----------------|
|-0---------------|-0---------------||----------------|-----------------|
|---------0-------|-----------------|---------0-------|---------0-------|
|-----------0-----|-----0-----------|-----------0-----|-----------0-----|
|-----0-------0-0-|---0---0---------|-----2-------2---|-----2-------2---|
|---2---2---------|-----------------|---2---2-------2-|---2---2-------2-|
|-3---------------|-3-------2-3-2---|-0---------------|-0---------------|
|-----------------|---------------3-|-----------------|-----------------|
Pre-Chorus
|---------0-------|---------0-------||---------0-------|
|-----------0-----|-----------0-----||-----------0-----|
|-----0-------0---|-----0-------0---||-----2-------2---|
|---4---4-------4-|---4---4-------4-||---2---2-------2-|
|-2---------------|-2---------------||-0---------------|
|-----------------|-----------------||-----------------|
|---------0-------|---------0-------|---------0-------|---------0-------|
|-----------0-----|-----------0---0-|---0---0---0---0-|-----------0-----|
|-----0-------0---|---4-0-4-----0---|-----0-------0---|-----2-------2---|
|---4---4-------4-|-2---------------|-0---------------|---2---2-------2-|
|-2---------------|-----------------|-----------------|-0---------------|
|-----------------|-----------------|-----------------|-----------------|
|---------0-------|-----------------|---------0-------|---------0-------|
|-----------0-----|---0---0---0---0-|-----0-----0---0-|-----0-----0---0-|
|-----0-------0---|-----0-------0---|---0---0-----0---|---0---0-----0---|
|---4---4-------4-|-2-------0-------|-----------------|-----------------|
|-2---------------|-----------------|-4---------------|-3---------------|
|-----------------|-----------------|-----------------|-----------------|
Chorus
E5 C5
Gtr II
| |
/ /
Gtr I
|------------||---------0-------|---------0-------|
|------------||-----------0-----|-----------1-----|
|------------||-----0-------0---|-----0-------0---|
|------------||-2-----2---------|---2---2-------2-|
|-3----------||-2-2-----------2-|-3---------------|
|--------2-3-||-0---------------|-----------------|
|
|------------||-----------------|-----------------|
|------------||-----------------|-----------------|
|------------||-----------------|-----------------|
|------------||-----------------|-----------------|
|------------||-----------------|-----------------|
|------------||-----------------|-----------------|
F#5 G5
| | | | |
o / / o o
|---------0-------|-----------------------------|
|-----------0-----|-----------------------------|
|-----2-------2---|-----0-----------0-----------|
|---0---0-------0-|---0---------0---------------|
|-----------------|-----------------------------|
|-2---------------|-3------3------------2--3----|
|
| Gtr III
|-----------------|-----------------------------|
|-----------------|-----------------------------|
|-----------------|-------14b16r==(14)-12-14b16-|
|-----------------|-----------------------------|
|-----------------|-----------------------------|
|-----------------|-----------------------------|
E5 C5 F#5 G5
| | | | | | |
/ / o / / o o
|---------------0-------|---------0-------|---------0-------|-----------------|
|-----------------0-----|-----------1-----|-----------0-----|-----------------|
|-----------0-------0---|-----0-------0---|-----2-------2---|-----0-----0-----|
|---2---------2---------|---2---2-------2-|---0---0-------0-|---0-----0-------|
|---2-----2-----------2-|-3---------------|-----------------|-----------------|
|---0-------------------|-----------------|-2---------------|-3-----3-----2-3-|
|
|-----------------------|-----------------|-----------------|-----------------|
|-----------------------|-----------------|-----------------|-----------------|
|-(14)b16---------------|-----------------|-----------------|-----------------|
|-----------------------|-----------------|-----------------|-----------------|
|-----------------------|-----------------|-----------------|-----------------|
|-----------------------|-----------------|-----------------|-----------------|
E5 C5 F#5
| | |
/ / o
|---------0-------|---------0-------|---------0-------|
|-----------0-----|-----------1-----|-----------0-----|
|-----0-------0---|-----0-------0---|-----2-------2---|
|-2-----2---------|---2---2-------2-|---0---0-------0-|
|-2-2-----------2-|-3---------------|-----------------|
|-0---------------|-----------------|-2---------------|
|
|-----------------|-----------------|-----------------|
|-----------------|-----------------|-----------------|
|-----------------|-----------------|-----------------|
|-----------------|-----------------|-----------------|
|-----------------|-----------------|-----------------|
|-----------------|-----------------|-----------------|
G5
| | | |
/ / o o
|-------------------------------------|
|-------------------------------------|
|----------------------0--------0-----|
|------------------0----------0-------|
|-------------------------------------|
|-------------3------------3------2-3-|
|
| ~~
|-------------------------------------|
|----------------------------17-------|
|-----12-14--14b16r==(14)-12----------|
|-/14---------------------------------|
|-------------------------------------|
|-------------------------------------|
E5 C5 F#5 G5
| | | |
/ / o /
|----------0-------|---------0-------|---------0-------|-----|
|------------0-----|-----------1-----|-----------0-----|-----|
|------0-------0---|-----0-------0---|-----2-------2---|-----|
|--2-----2---------|---2---2-------2-|---0---0-------0-|-----|
|--2-2-----------2-|-3---------------|-----------------|-----|
|--0---------------|-----------------|-2---------------|-----|
|
| ~~
|------------------|-----------------|-----------------|-----|
|-17---------------|-----------------|-----------------|-----|
|------------------|-----------------|-----------------|-----|
|------------------|-----------------|-----------------|-----|
|------------------|-----------------|-----------------|-----|
|------------------|-----------------|-----------------|-----|
A5
|
/
|---------|
|---------|
|---------|
|---------|
|---------|
|---------|
|
/
|----------------------------------------------------------------------|
|-12-13p12h13p12h13p12h13p12h13p12h13p12h13p12h13p12h13p12h13p12h13p12-|
|----------------------------------------------------------------------|
|----------------------------------------------------------------------|
|----------------------------------------------------------------------|
|----------------------------------------------------------------------|
Guitar Solo
A5 F5 G5
Gtr III
| | |
/ / /
Gtr II
~~ ~~~~~~~ ~~
|-----------------------------|-------------------------|-15----15b17-15---|
|-13----------13-15-15b17--15-|-15-(15)-----13h15p13----|------------------|
|----14--(14)-----------------|----------------------16-|------------------|
|-----------------------------|-------------------------|------------------|
|-----------------------------|-------------------------|------------------|
|-----------------------------|-------------------------|------------------|
C5 A5
| |
/ /
|-15-13-12----13-12----12----------------------------------|-------------------|
|----------15-------15----15-13-15-13-12----13-12----12----|-------12-13-15s22-|
|----------------------------------------14-------14----14-|-14----------------|
|----------------------------------------------------------|-------------------|
|----------------------------------------------------------|-------------------|
|----------------------------------------------------------|-------------------|
F5 G5
| |
/ /
~~
|--------------|-20-(20)-19h20p19-17-19-17----19-------------|
|-20-(20)---17-|---------------------------20----20-18-17----|
|--------------|------------------------------------------19-|
|--------------|---------------------------------------------|
|--------------|---------------------------------------------|
|--------------|---------------------------------------------|
C5
|
/
|-------------------------------------------------|
|-18p17----17-18p17----17-------------------------|
|-------19----------19----19-17-16----17-16----16-|
|----------------------------------19-------19----|
|-------------------------------------------------|
|-------------------------------------------------|
A5 F5
| |
/ /
|----------------------|------------------|
|----------------20S22-|-20-------(20)-17-|
|-------16-17-19-------|------------------|
|-19-------------------|------------------|
|----------------------|------------------|
|----------------------|------------------|
G5
|
/
~~
|-20--19h20p19-17-19-17-15-17-15-----------|
|--------------------------------18-17-15--|
|------------------------------------------|
|------------------------------------------|
|------------------------------------------|
|------------------------------------------|
C5 A5
| |
/ /
|---------------------------------------------------|------------------|
|-18-17-15-17h18p17p15-17h18p17p15-17h18p17p15-17---|------------------|
|---------------------------------------------------|-14-------(14)----|
|---------------------------------------------------|---------------14-|
|---------------------------------------------------|------------------|
|---------------------------------------------------|------------------|
F5 G5
| |
/ /
|------------------|---------------|
|----------12-13---|-12---12-13-15-|
|------/14---------|---------------|
|-15---------------|---------------|
|------------------|---------------|
|------------------|---------------|
C5
|
/
|-15--15p14p12h15p14p12h15p14p12h15p14p12h15p14p12h15p14p12--|
|------------------------------------------------------------|
|------------------------------------------------------------|
|------------------------------------------------------------|
|------------------------------------------------------------|
|------------------------------------------------------------|
A5 F5 G5 C5
| | | |
/ / / /
~~
|------------------|------------------|---------------|-15--12----------|
|------------------|----------12-13---|-12---12-13-15-|--------15-13----|
|-14-------(14)----|------/14---------|---------------|-----------------|
|---------------14-|-15---------------|---------------|-----------------|
|------------------|------------------|---------------|-----------------|
|------------------|------------------|---------------|-----------------|
D5
|
/
|-17--14h15p14----14-15-17--15-14----15-14----14----14----|
|--------------17-----------------17-------17----17----15-|
|---------------------------------------------------------|
|---------------------------------------------------------|
|---------------------------------------------------------|
|---------------------------------------------------------|
|
/
|-14-15-14----14-15-17-19-17----|
|----------17-------------------|
|-------------------------------|
|-------------------------------|
|-------------------------------|
|-------------------------------|
|
/
|-----14h15p14h15p14h15p14h15p14h15p14h15p14h15p14h15-|
|-----------------------------------------------------|
|-----------------------------------------------------|
|-----------------------------------------------------|
|-----------------------------------------------------|
|-----------------------------------------------------|
Pre-Chorus
Gtr I
|----------0-------|---------0-------|-----------------|---------0-------|
|------------0-----|-----------0-----|---0---0---0---0-|-----0-----0---0-|
|------2-------2---|-----0-------0---|-----0-------0---|---0---0-----0---|
|----2---2-------2-|---4---4-------4-|-2-------0-------|-----------------|
|--0---------------|-2---------------|-----------------|-4---------------|
|------------------|-----------------|-----------------|-----------------|
|
| Gtr II
| ~~
|-24---------------|-----------------|-----------------|-----------------|
|------------------|-----------------|-----------------|-----------------|
|------------------|-----------------|-----------------|-----------------|
|------------------|-----------------|-----------------|-----------------|
|------------------|-----------------|-----------------|-----------------|
|------------------|-----------------|-----------------|-----------------|
C5
Gtr III
| | | | |
/ / / o o
Gtr I
|---------0-------|---------|------------|
|-----0-----0---0-|---------|------------|
|---0---0-----0---|---------|------------|
|-----------------|---------|------------|
|-3---------------|---------|-3----------|
|-----------------|---------|--------2-3-|
Chorus
E5 C5 F#5
| | |
/ / o
|---------0-------|---------0-------|---------0-------|
|-----------0-----|-----------1-----|-----------0-----|
|-----0-------0---|-----0-------0---|-----2-------2---|
|-2-----2---------|---2---2-------2-|---0---0-------0-|
|-2-2-----------2-|-3---------------|-----------------|
|-0---------------|-----------------|-2---------------|
|
| Gtr II
|-----------------|-----------------|-----------------|
|-----------------|-----------------|-----------------|
|-----------------|-----------------|-----------------|
|-----------------|-----------------|-----------------|
|-----------------|-----------------|-----------------|
|-----------------|-----------------|-----------------|
G5
| | | |
/ / o o
|-------------------------------------|
|-------------------------------------|
|-----------0------------0------------|
|---------0---------0-----------------|
|-------------------------------------|
|-3--------------3---------2---3------|
|
|-------------15----------------------|
|---15b17----------15b17r====(15)-12--|
|-------------------------------------|
|-------------------------------------|
|-------------------------------------|
|-------------------------------------|
E5 C5 F#5 G5
| | | | | | |
/ / o / / o o
|----------0-------|---------0-------|---------0-------|-----------------|
|------------0-----|-----------1-----|-----------0-----|-----------------|
|------0-------0---|-----0-------0---|-----2-------2---|-----0-----0-----|
|--2-----2---------|---2---2-------2-|---0---0-------0-|---0-----0-------|
|--2-2-----------2-|-3---------------|-----------------|-----------------|
|--0---------------|-----------------|-2---------------|-3-----3-----2-3-|
|
| ~~
|------------------|-----------------|-----------------|-----------------|
|-17---------------|-----------------|-----------------|-----------------|
|------------------|-----------------|-----------------|-----------------|
|------------------|-----------------|-----------------|-----------------|
|------------------|-----------------|-----------------|-----------------|
|------------------|-----------------|-----------------|-----------------|
E5 C5
| |
/ /
|---------0-------|---------0-------|
|-----------0-----|-----------1-----|
|-----0-------0---|-----0-------0---|
|-2-----2---------|---2---2-------2-|
|-2-2-----------2-|-3---------------|
|-0---------------|-----------------|
|
|-----------------|-----------------|
|-----------------|-----------------|
|-----------------|-----------------|
|-----------------|-----------------|
|-----------------|-----------------|
|-----------------|-----------------|
F#5 G5
| | | | |
o / / o o
|---------0-------|-----------------------------|
|-----------0-----|-----------------------------|
|-----2-------2---|----------0------------0-----|
|---0---0-------0-|----0----------------0-------|
|-----------------|-----------------------------|
|-2---------------|-3---------------3-------2-3-|
|
|-----------------|---17b19-17b19r(17)-15-------|
|-----------------|-----------------------------|
|-----------------|-----------------------------|
|-----------------|-----------------------------|
|-----------------|-----------------------------|
|-----------------|-----------------------------|
E5 C5 F#5 G5
| | | |
/ / o /
|----------0-------|---------0-------|---------0-------|---------------|
|------------0-----|-----------1-----|-----------0-----|---------------|
|------0-------0---|-----0-------0---|-----2-------2---|-----0-----0---|
|--2-----2---------|---2---2-------2-|---0---0-------0-|---0-----0-----|
|--2-2-----------2-|-3---------------|-----------------|---------------|
|--0---------------|-----------------|-2---------------|-3-----3-------|
|
| ~~
|-19---------------|-----------------|-----------------|---------------|
|------------------|-----------------|-----------------|---------------|
|------------------|-----------------|-----------------|---------------|
|------------------|-----------------|-----------------|---------------|
|------------------|-----------------|-----------------|---------------|
|------------------|-----------------|-----------------|---------------|
Out-Chorus
A5 B5 C5 D5
| | | |
/ / / /
||----------0-------|---------0-------|---------0-------|-----------------||
||o-----------0-----|-----------0-----|-----------1-----|----------------o||
||------2-------2---|-----0-------0---|-----0-------0---|---0-----0-------||
||----2---2-------2-|---4---4-------4-|---2---2-------2-|-----4-----4-----||
||o-0---------------|-2---------------|-3---------------|-------2-----2--o||
||------------------|-----------------|-----------------|-----------------||
A5 F5 G5 C5
| | | |
/ / / /
|---------|---------|---------|------|
|---------|---------|---------|------|
|---------|---------|---------|------|
|---------|---------|---------|------|
|---------|---------|---------|------|
|---------|---------|---------|------|
A5 F5 G5 C5
| | | |
/ / / /
Gtr II
~~ ~~~~~~~~~~~~~~~~~
|-17--------|----15----(15)---|-----------|------|
|-----------|-13--------------|-15--------|------|
|-----------|-----------------|-----------|------|
|-----------|-----------------|-----------|------|
|-----------|-----------------|-----------|------|
|-----------|-----------------|-----------|------|
A5 F5 G5 C5
| | | |
/ / / /
~~ ~~~~~~~
|-17--------|--------17-|-15-(15)-----13-12-|-13-12h13p12----12----------------|
|-----------|-----------|-------------------|-------------15----15-13-12-13----|
|-----------|-----------|-------------------|----------------------------------|
|-----------|-----------|-------------------|----------------------------------|
|-----------|-----------|-------------------|----------------------------------|
|-----------|-----------|-------------------|----------------------------------|
A5 F5
| |
/ /
~~ ~~~~~~~~~~~~
|-------------12-15S17-|-15------(15)----------17-|
|-13----13-15----------|--------------20p19p17----|
|----------------------|--------------------------|
|----------------------|--------------------------|
|----------------------|--------------------------|
|----------------------|--------------------------|
G5 C5
| |
/ /
~~
|-20--19-------------17-------------------------|-------*|
|--------17-17-18-20----20-18-17----17----------|-------*|
|--------------------------------19----19-17-16-|-------*|
|-----------------------------------------------|-19----*|
|-----------------------------------------------|-------*|
|-----------------------------------------------|-------*|

***************************************************************************************
* Generated using Power Tab Editor by Brad Larsen - http://powertab.guitarnetwork.org *
***************************************************************************************




Ваше мнение



Капча