Great White-Save all your love
by Ron Zane [email protected]

There is not enough Great White material on the internet so I thought
I would enter my first tab on the net. Also if anyone knows how to play
the intro to Tora Tora's Walking Shoes correctly, please tell me.
Email me if any questions..thanks

(rhythm figure 1) x 4
|-------------------------------------------------------------------------------------------------------------------------
|-------------------------------------------------------------------------------------------------------------------------
|-------------------------0----------------------------------------------------------------------------------------------
|---------------4-------------------4-----------------------------------------------------------------------------------
|---------2----------2---------2-------2------------------------------------------------------------------------------
|---0--------------------------------------------------------------------------------------------------------------------


(rhythm figure 2) X 2
|----------------0---------------------------0-----------------------------0------------------------------------------
|--------------------0---------------------------3-----------------------------0--------------------------------------
|---------0------------0--------------0------------0--------------2---------------2-------------0-------------------
|------------2------------2-------2-----2-------------2-------0--- 0-----------------0-----0-------0----0----0---
|-----2-----------------------3--------------------------------------------------------------------------------------
|-0----------------------------------------------------------2----------------------------3-------------3----2------


Back to RF1 x 4

Then to RF2 for the verse

And it keeps going for the majority of the song. The ending on the rhythm figure
two is different at a couple of different places but mostly it is just a tempo
change. A couple time at the end of it, you dont play the open D string.
Pretty simple but effective. Anyone that knows the solo should add it.




Ваше мнение



Капча