-------------------------------------------------------------------------------
Fast Road - Great White
-------------------------------------------------------------------------------

Tabbed by:VDub
Email:[email protected]

Tuning:Standard

This is just to get the main verse down, the rest will be here soon enough
Listen to the song to get the timing down. I am welcome to any suggestions, so
email me with anything.

After Drum Intro
e|---------------------------------------------------------------------------|
B|---------------------------------------------------------------------------|
G|-4---7-7----4---4-2----4---7-7---4-2---------------------------------------|
D|-4-2-7-7----4-2-4-2----4-2-7-7---4-2---------------------------------------|
A|-2-3-5-5----2-3-2-0----2-3-5-5---2-0---------------------------------------|
E|---------------------------------------------------------------------------|

Anonymous and ending riff
e|---------------------------------------------------------------------------|
B|---------------------------------------------------------------------------|
G|---------------------------------------------------------------------------|
D|---------------------------------------------------------------------------|
A|-/5-3-2-2---/5-5-3-2-2---/5-5-3-2-2----------------------------------------|
E|----------3------------3------------3--------------------------------------|




Ваше мнение



Капча