Song: If
Artist: Gravity Kills
Album: Perversion
Tabbed by: SFX([email protected])

Tuning: C A D G

Riff 1:
G:-----------------------------
D:-----------------------------
A:-----------------------------
C:0-0-0-0-0-0-0-0-3-3-3-1-1-1-1

Riff 2:
G:-------------------------------
D:-------------------------------
A:-------------------------------
C:0-0-0-0-0-0-0-0-0-0-0-0-0-0-0-0

Riff 3:
G:---------------------------------------------------------------
D:---------------------------------------------------------------
A:---------------------------------------------------------------
C:0-0-0-0-0-0-0-0-3-3-3-3-3-3-3-3-5-5-5-5-5-5-5-5-6-6-6-6-6-6-6-6

Riff 4:
G:-----------------------------------------------
D:-----------------------------------------------
A:-----------------------------------------------
C:0-0-0-0-0-0-0-0-3-3-3-3-3-3-3-3-5-5-5-5-5-5-5-5

Riff 1 x 12
Riff 2 x 1
Riff 1 x 8
Riff 3 x 2
Riff 1 x 12
Riff 2 x 2
Riff 1 x 4
Riff 2 x 1
Riff 1 x 8
[Guitar solo]
Riff 4 x 1
Riff 3 x 2
Riff 1 x 4

The New SFX Nation: http://sfx.go.to

I pretty sure this is right, so play the song, you know you want to.
If your just wanting to vent about how right/wrong I am, then email
me at [email protected]





Ваше мнение



Капча