Date: Thu, 7 Nov 1996 18:34:11 -0800
From: Miriam Fernando
Subject: TAB: BLAME BY GRAVITY KILLS
Blame by Gravity Kills
Tabbed By Shirantha Fernando
Okay heres my version of this song
Intro
e---------------------------
b---------------------------
g---------------------------
d-0-0-0-5-5-5/7-------------
a-0-0-0-5-5-5/7-------------
e-0-0-0-3-3-3/5-------------
Verse
PM----
e--------------------------
b--------------------------
g--------------------------
d-2-2-2-2------------------
a-2-2-2-2------------------
e-0-0-0-0------------------
Pre- Chorus
e-------------------------------------
b-------------------------------------
g-------------------------------------
d-2-2-2-2-5-5-5-5-4-4-4-4-7-7-7-7-----
a-------------------------------------
e-0-0-0-0-3-3-3-3-2-2-2-2-5-5-5-5-----
Chorus
e---------------------------
b---------------------------
g---------------------------
d-0-0-0-5-5-5/7-------------
a-0-0-0-5-5-5/7-------------
e-0-0-0-3-3-3/5-------------

and the solos are just pentatonic scale 1 on the 12th fret in the key
of E
with a lot of noises/wah/effects which i sure as hell ain't gonna type
out.





Ваше мнение



Капча