EDMOND FITZGERALD / GORDON LIGHTFOOT
This is my version of the solo /? I know it is
not perfect but it,s fun to play. I use
reverb + distortion works OK.
All mistakes are mine . HAVE FUN most of all
Howee/Hanson....
e|------------------------------------------------------
b|--------10----10----12----10--------------------------
g|----9-------------------------1211-------------------
d|------------------------------------------------------
a|------------------------------------------------------
e|------------------------------------------------------

e|------------------------------------------------------
b|------------------------------------------------------
g|----9-~~~~--9---9h--11b---11r-----9~~~~---------------
d|------------------------------------------------------
a|------------------------------------------------------
e|------------------------------------------------------


e|----------------------5~~~~---------------------------
b|----------------------5~~~~---------------------------
g|----7---7---9h~~-----------------11b---11r------------
d|------------------------------------------------------
a|------------------------------------------------------
e|------------------------------------------------------

e|------------------------------------------------------
b|------------------------------------------------------
g|----9---9--hb11-~-11r----9-~~~-----7-~----------------
d|------------------------------------------------------
a|------------------------------------------------------
e|-------------------------------------------------------

e|------------------------5~~~~~------------------------
b|------------------------5~~~~~------------------------
g|----7--h-9-~~~----------------------------------------
d|------------------------------------------------------
a|------------------------------------------------------
e|------------------------------------------------------
chords are Asus2 em G D

eadgbe eadgbe eadgbe eadgbe
x02200 022000 320003 xx0232




Ваше мнение



Капча

Рекомендуем