Song: Running Blind
Group: Godsmack
Album: The Other Side
Transcribed by: [email protected]

This is the rhythm guitar.

Drop down a half step Eb Ab Db Gb Bb eb (low to high)

Intro & First Verse...

Can't find the answers
I've been crawling on my knees
Looking for anything
To keep me from drowning
Promises have been turned to lies
Can't even be honest inside
Now I'm running backward
Watching my life wave me goodbye

eb|---0---0---0---0---|---0---0---|---3---3---3---|
Bb|---0---0---0---0---|---3---3---|---1---1---1---|
Gb|---0---0---0---0---|---2---2---|---0---0---0---|
Db|---2---2---2---2---|---0---0---|---2---2---2---|
Ab|---2---2---2---2---|---0---0---|---3---3---3---|
Eb|---0---0---0---0---|-----------|---------------|

Chorus...

Running blind
I'm running blind

eb|---------------|---------------|
Bb|---------------|---------------|
Gb|---6---6---6---|---8---8---8---|
Db|---7---7---7---|---9---9---9---|
Ab|---7---7---7---|---9---9---9---|
Eb|---5---5---5---|---7---7---7---|

Somebody help me see I'm running blind

eb|---------------|---------------|
Bb|---------------|---------------|
Gb|---4---4---4---|---2---2---2---|
Db|---5---5---5---|---3---3---3---|
Ab|---5---5---5---|---3---3---3---|
Eb|---3---3---3---|---1---1---1---|

Second Verse...

Searching for nothing
Wondering if I'll change
I'm trying everything
But everything still stays the same
I thought if I showed you I could fly
Wouldn't need anyone by my side
Now I'm running backward
With broken wings I know I'll die

eb|---0---0---0---0---|---0---0---|---3---3---3---|
Bb|---0---0---0---0---|---3---3---|---1---1---1---|
Gb|---0---0---0---0---|---2---2---|---0---0---0---|
Db|---2---2---2---2---|---0---0---|---2---2---2---|
Ab|---2---2---2---2---|---0---0---|---3---3---3---|
Eb|---0---0---0---0---|-----------|---------------|

Chorus...

Running blind
I'm running blind

eb|---------------|---------------|
Bb|---------------|---------------|
Gb|---6---6---6---|---8---8---8---|
Db|---7---7---7---|---9---9---9---|
Ab|---7---7---7---|---9---9---9---|
Eb|---5---5---5---|---7---7---7---|

Somebody help me see I'm running blind

eb|---------------|---------------|
Bb|---------------|---------------|
Gb|---4---4---4---|---2---2---2---|
Db|---5---5---5---|---3---3---3---|
Ab|---5---5---5---|---3---3---3---|
Eb|---3---3---3---|---1---1---1---|

Bridge...

Running blind
Running blind
Running blind

eb|---0---0---0---0---|---0---0---|---3---3---3---|
Bb|---0---0---0---0---|---3---3---|---1---1---1---|
Gb|---0---0---0---0---|---2---2---|---0---0---0---|
Db|---2---2---2---2---|---0---0---|---2---2---2---|
Ab|---2---2---2---2---|---0---0---|---3---3---3---|
Eb|---0---0---0---0---|-----------|---------------|

During the solo, just play the verse followed by the chorus.

Last Verse...

I can't find the answers
I've been crawling on my knees
Looking for anything
To keep me from drowning
I'm running blind

Running blind
Running blind
Running blind
Running blind
Running blind
Running blind
Running blind
Running blind

eb|---0---0---0---0---|---0---0---|---3---3---3---|
Bb|---0---0---0---0---|---3---3---|---1---1---1---|
Gb|---0---0---0---0---|---2---2---|---0---0---0---|
Db|---2---2---2---2---|---0---0---|---2---2---2---|
Ab|---2---2---2---2---|---0---0---|---3---3---3---|
Eb|---0---0---0---0---|-----------|---------------|





Ваше мнение



Капча

Рекомендуем