Hm
Восемь ноль ноль я у входа в метро
G
Я с иголочки вся и духи от КоКо - дышите.
Hm
Ты не пришел, значит был не один,
G
Мое сердце горит хоть звони ноль один - тушите.

D G Em F#
Я не прощу тебе е е.
Em F# Hm G
Аста ла виста - любовь моя красивая, чистая
Em F# Hm
Аста ла виста - любовь моя пушистая чисто.
Em F# Hm G
Аста ла виста - любовь моя красивая, чистая
Em F# Hm
Аста ла виста - ага, ага.

2:
Мимо витрин я гуляю одна
И любовь от Кутюр мне уже не нужна - простите
Не позвоню и начнется откат
Сто записан в дверях - включишь полный назад - спасите.

басовая партия:
для Hm: H, D, F#(верхняя октава), т.е. так:

1------------
2|-------0--4------------
3|--2--------------------
4------------

для G: G, H, D. т.е. так:

1------------
2------------
3|------2--5-------------
4|--3--------------------

для Em: E, G, H, т.е. так:

1------------
2------------
32-----------
4|--0----3---------------

для F#: F#, A, C#, т.е. так:

1------------
2------------
3|-------0--4------------
4|--2--------------------

нарисованы струны бас-гитары.




Ваше мнение



Капча