ARTIST: Genesis
TITLE: Throwing It All Away
ALBUM: Invisible Touch
TABBED BY: Martin Kelly
Tune your guitar to the notes on the tab and have fun!

Eb----------------------------------------------------------------------------------------
Bb----------------------------------------------------------------------------------------
Gb--12-12-12-11-7-9--7-9--12-12-12-11-7-9--7-9--12-12-12-11-7-9--7-9-12-12-12-11-12-14-12-
Db----------------------------------------------------------------------------------------
Ab----------------------------------------------------------------------------------------
Eb----------------------------------------------------------------------------------------
Eb----------------------------------------------------------------------------------------
Bb----------------------------------------------------------------------------------------
Gb--11-9----------------------------------------------------------------------------------
Db----------------------------------------------------------------------------------------
Ab----------------------------------------------------------------------------------------
Eb----------------------------------------------------------------------------------------
VERSE
Play the intro, and add this to it. Play the whole thing twice.
Eb----------------------------------------------------------------------------------------
Bb----------------------------------------------------------------------------------------
Gb--9----11----12-12-12-11-7-9---12-12-12-11-7-9--7-9--12-12-12-11-9-7--9-7---------------
Db----------------------------------------------------------------------------------------
Ab----------------------------------------------------------------------------------------
Eb----------------------------------------------------------------------------------------
CHORUS
Eb----------------------------------------------------------------------------------------
Bb----------------------------------------------------------------------------------------
Gb--6---2---7-------4---2-----6---2---7-------4---2----9-----7----9-----------------------
Db--------------5-------------------------5-----------------------------------------------
Ab----------------------------------------------------------------------------------------
Eb----------------------------------------------------------------------------------------
INTERLUDE
play this twice
Eb----------------------------------------------------------------------------------------
Bb----------------------------------------------------------------------------------------
Gb--14-14-12-11-9-7---14-14-14-12-11-9-7---14-14-14-12-11-9-7---12-11-9-11-12-------------
Db----------------------------------------------------------------------------------------
Ab----------------------------------------------------------------------------------------
Eb----------------------------------------------------------------------------------------
ENDING
Repeat to fade
Eb----------------------------------------------------------------------------------------
Bb----------------------------------------------------------------------------------------
Gb--12-12-12-11-7-9--7-9--12-12-12-11-7-9--7-9--14-14-14-12-11-9--12-11-9-11-12-----------
Db----------------------------------------------------------------------------------------
Ab----------------------------------------------------------------------------------------
Eb----------------------------------------------------------------------------------------
SONG GOES LIKE THIS
Intro, Verse, Chorus, Interlude, Verse, Chorus*, Ending.
* Leave out the last three notes. If you don't catch my drift, listen to the song.
For a list of Guitar Tabs, contact [email protected]




Ваше мнение



Капча