ARTIST: Genesis
TITLE: Invisible Touch
FROM ALBUM: Invisible Touch
TABBED BY: Martin Kelly
NOTES: This should be more or less right.
INTRO/CHORUSES 1,2 AND 3
E---6--6--6--5--3--1--1--1--3---6--6--6--5--3--1--1--1--3---6--6--6--5--3--1--1--1--3---------|
B---------------------------------------------------------------------------------------------|
G---------------------------------------------------------------------------------------------|
D---------------------------------------------------------------------------------------------|
A---------------------------------------------------------------------------------------------|
E---------------------------------------------------------------------------------------------|
E--6--6--6--5--3--1--1--1--3-----------------------------------------------------------------|
B--------------------------------------------------------------------------------------------|
G--------------------------------------------------------------------------------------------|
D--------------------------------------------------------------------------------------------|
A--------------------------------------------------------------------------------------------|
E--------------------------------------------------------------------------------------------|
VERSE
E---------------------------------------5--5--3--5-------------------------------------------|
B--------------------------------------------------------------------------------------------|
G---7--7---5--5---10--10---10-10---------------7--7---5--5---10--10--12--12--12--12----------|
D--------------------------------------------------------------------------------------------|
A--------------------------------------------------------------------------------------------|
E--------------------------------------------------------------------------------------------|
E-----------------------------5--5--3--5---------------------5--5--3--5--1--1---1--1--1--3--------------|
B-------------------------------------------------------------------------------------------------------|
G--12----10--10---10-10---------------10--10---10-10----------------------------------------------------|
D-------------------------------------------------------------------------------------------------------|
A-------------------------------------------------------------------------------------------------------|
E-------------------------------------------------------------------------------------------------------|
The solo has no guitar, but I hold my hand lightly over the strings and just stroke up and down in slashes
CHORUS 2 [Repeat this to fade.]
E--8--8--8--7--5--3--3--3--5---8--8--8--7--5--3--3--3--5---8--8--8--7--5--3--3--3--5---------|
B--------------------------------------------------------------------------------------------|
G--------------------------------------------------------------------------------------------|
D--------------------------------------------------------------------------------------------|
A--------------------------------------------------------------------------------------------|
E--------------------------------------------------------------------------------------------|
E--8--8--8--7--5--3--3--3--5-----------------------------------------------------------------|
B--------------------------------------------------------------------------------------------|
G--------------------------------------------------------------------------------------------|
D--------------------------------------------------------------------------------------------|
A--------------------------------------------------------------------------------------------|
E--------------------------------------------------------------------------------------------|
For a list of Easy Guitar Tabs, contact [email protected]


Ваше мнение



Капча