ARTIST: Genesis
TITLE: Congo [Single Version]
ALBUM: Calling All Stations
TABBED BY: Martin Kelly
INTRO
E-------------------------------------------------------------------------------------------|
B-------------------------------------------------------------------------------------------|
G-------------------------------------------------------------------------------------------|
D--2--------0---7---2--------0---7---2-------0---7---2--------------------------------------|
A-------------------------------------------------------------------------------------------|
E-------------------------------------------------------------------------------------------|
VERSE
E-------------------------------------------------------------------------------------------|
B-------------------------------------------------------------------------------------------|
G-------------------------------------------------------------------------------------------|
D--2-------0---7---2-------0---7---2-------0---7---2----------------------------------------|
A-------------------------------------------------------------------------------------------|
E-------------------------------------------------------------------------------------------|
CHORUS/ENDING
E---0------0--------------0-----0--------------0------0--------------0-----0----------------|
B---0------3--------------0-----3--------------0------3--------------0-----3----------------|
G---1------2--------------1-----2--------------1------2--------------1-----2----------------|
D---2------0--------------2-----0--------------2------0--------------2-----0----------------|
A---2---------------------2--------------------2---------------------2----------------------|
E---0---------------------0--------------------0---------------------0----------------------|
MIDDLE
E-------------------------------------------------------------------------------------------|
B---8--5-8--8--8--10--8----8--5-8--8--8--10--8----8--5-8--8--8--10--8----8--5---------------|
G-------------------------------------------------------------------------------------------|
D-------------------------------------------------------------------------------------------|
A-------------------------------------------------------------------------------------------|
E-------------------------------------------------------------------------------------------|
E-------------------------------------------------------------------------------------------|
B---8--8--8-10--8--5-8--8--8--10--8----8--5-8--8--8--10--8----------------------------------|
G-------------------------------------------------------------------------------------------|
D-------------------------------------------------------------------------------------------|
A-------------------------------------------------------------------------------------------|
E-------------------------------------------------------------------------------------------|
For a list of Easy Guitar Tabs, contact [email protected]




Ваше мнение



Капча