#----------------------------------PLEASE NOTE---------------------------------#
#This file is the author's own work and represents their interpretation of the #
#song. You may only use this file for private study, scholarship, or research. #
#------------------------------------------------------------------------------##
Newsgroups: rec.music.makers.guitar.tablature
Subject: TAB: intro, Cinema Show, GENESIS
Date: 12 May 93 18:09:19 GMT
Bob Paley
[email protected]

INTRO:
1st guitar:
--17--17--17------15--15--15----------------------------------
----20--20--20--18--18--18--18--18--18--18--18----17--17--17--
----------------------------------21--21--21----19--19--19--19
--------------------------------------------------------------
--------------------------------------------------------------
--------------------------------------------------------------
2nd guitar:
----6--6--6--------6--6--6--------3---3---3--------3--3--3----
--------------------------------------------------------------
----7--7--7--------7--7--7--------3---3---3--------3--3--3----
--0-------------0---------------0---------------0-------------
--------------------------------------------------------------
--------------------------------------------------------------
1st:
--------------------------------------------------------
-17--17--17--17----15--15--15----13--13--13--13---------
---19--19--19----17--17--17--17----16--16--16-----------
--------------------------------------------------------
--------------------------------------------------------
--------------------------------------------------------
2nd:
----1--1--1----------1--1--1----------------------------
--------------------------------------------------------
----2--2--2----------2--2--2--------7--7--7-------------
--0----------------0--------------0---------------------
--------------------------------------------------------
--------------------------------------------------------
1st:
--------------------------------------------------------------
--12--12--12------12--12--12------10--10--10------10--10--10--
14--14--14--14--12--12--12--12--12--12--12--12--10--10--10--10
--------------------------------------------------------------
--------------------------------------------------------------
--------------------------------------------------------------
slower
2nd:
--------------------------------------------------------------
--------------------------------------------------------------
---7--7---7--------7--7---7--------5--5--5----------5--5--5---
0----------------0--------------0-----------------0-----------
--------------------------------------------------------------
--------------------------------------------------------------
1st:
----------------------------------------------------|---
---8--8--8------8-8-8------8--8--8------8-8-8-------|---
-10-10-10-10---9-9-9-9---10-10-10-10---9-9-9-9------|---
----------------------------------------------------|---
----------------------------------------------------|---
----------------------------------------------------|---
a tempo slow slower even slower
2nd:
----------------------------------------------------|---
----------------------------------------------------|---
----3-3-3-------3-3-3------3-3-3---------3-3-3------|---
--5------------5----------5------------5------------|---
----------------------------------------------------|---
----------------------------------------------------|---
VERSE:
one guitar (I think...)
-----10------10-----10---10--10-------10-----10-----10---10--10
---14------14-----14---14--14-------14-----14-----14---14--14--
-11------11-----11----------------12-----12-----12-------------
0-------0------0-----------------0------0------0---------------
---------------------------------------------------------------
---------------------------------------------------------------
(4X; 2X without vocals, 2X with vocals....)
Home from work, our Juliet..............
Then, 2 guitars again:
1st: Dm Bb
--5---5-5------5---5-5------6----6-6-------6-------6-6---------
---6-----6------6-----6------6------6-------6---------6--------
----7-----7__----7-----7__----7(?)---7(?)__--7(?)__----7(?)__--
---------------------------------------------------------------
---------------------------------------------------------------
---------------------------------------------------------------
I will make my bed, she said, and turned to go
2nd:
--0-1-0-1-0-1---0-1-0-1-0-1---0-1-0-1-0-1-----0-1-0-1-0-1---
------------------------------------------------------------
------------------------------------------------------------
------------------------------------------------------------
------------------------------------------------------------
------------------------------------------------------------

ONE GUITAR: ___________________ __________________
Bb C |1. Dm | 2. Gmaj7 Am
----6--6----8--8--8--8-----10__--8-10-8-5--|-------------------
----6--6----8--8--8--8-----10__------------|----To next section
--7---------9--9--9--9-----10__-----------!|-------------------
------------------------------------------!|-------------------
-------------------------------------------|-------------------
-------------------------------------------|-------------------
1. Can she be late for her cinema show?
2. Can he fail armed with his chocolate surprise?
From: [email protected] (Bob Paley)
Subject: TAB: Cinema Show (middle section); GENESIS
Bob Paley
[email protected]

Gmaj7 C
chocolate surprise
----7--------7--------7--------7--------8--------8--------8----10-8--
--7---7----7---7----7---7----7---7----8---8----8---8----8---8--8--8--
7--------7--------7--------7--------9--------9--------9--------------
---------------------------------------------------------------------
---------------------------------------------------------------------
---------------------------------------------------------------------
Gmaj7 C
Take a little trip back with Father Tiresias
----7--------7--------7--------7--------8--------8--------8----10-8--
--7---7----7---7----7---7----7---7----8---8----8---8----8---8--8--8--
7--------7--------7--------7--------9--------9--------9--------------
---------------------------------------------------------------------
---------------------------------------------------------------------
---------------------------------------------------------------------
Gmaj7 C
----7--------7--------7--------7--------8--------8--------8----10-8--
--7---7----7---7----7---7----7---7----8---8----8---8----8---8--8--8--
7--------7--------7--------7--------9--------9--------9--------------
---------------------------------------------------------------------
---------------------------------------------------------------------
---------------------------------------------------------------------
Gmaj7 C
listen to the old one speak of all he has lived through
----7--------7--------7--------7--------8--------8--------8----10-8--
--7---7----7---7----7---7----7---7----8---8----8---8----8---8--8--8--
7--------7--------7--------7--------9--------9--------9--------------
---------------------------------------------------------------------
---------------------------------------------------------------------
---------------------------------------------------------------------
F Em D C
I have crossed between the poles and for me there's no mystery
----8-------8-------8------8-----7----7----7----5-------------3------
--10-10---10-10---10-10--10-10--8-8--8-8--8-8--7-------------5-5-----
10------10------10-----10------9----9----9----7-------------5--------
---------------------------------------------------------------------
---------------------------------------------------------------------
---------------------------------------------------------------------
B C#m B A
Once a man like the sea I raged once a woman like the earth
--3----3----2------4----4----4----4----4----2-----0----0----0---3-0--
-5-5--5-5--4------5-5--5-5--5-5--5-5--5-5--4-----2-2--2-2--2-2--2-2--
5----5----4------6----6----6----6----6----4-----2----2----2----2-----
---------------------------------------------------------------------
---------------------------------------------------------------------
---------------------------------------------------------------------

A7 A C Cdim
I gave but there is in fact more earth than
-----------------3-----0-0--------0----2---
-----------------2-----2-2--------1----1---
-----------------2-----2-2--------0----2---
-----------------2-----2-2--------2----1---
----------------------------------3--------
----------------------------------3--------
________________________________________...........
| 1st ending(quiet interlude)
|sea
||-------13----13----13----13----13-||-||-------0----0----0----0----0-||
||-----11----11----11----11----11---||-||-----12---12---12---12---12--||
|| -0------------------------------ ||-|| --14---14---14---14---14--- ||
|| --12----12----12----12----12---- ||-|| -0------------------------- ||
||----------------------------------||-||-----------------------------||
||-----------(repeat 4X)------------||-||----------(repeat 4X)--------||
(first guitar)
||---6---8---10---8---10---8--------||-||--13--15--13--15--13--15-----||
||---8---10--11---10--11---10-------||-||-----------------------------||
|| -------------------------------- ||-|| --------------------------- ||
|| -------------------------------- ||-|| --------------------------- ||
||----------------------------------||-||-----------------------------||
||-----------(repeat 4X)------------||-||---------(repeat 4X)---------||
(second guitar) (this seems to fade out of the mix)
[REPEAT THE SECTION ABOVE 3X, then, only one guitar for the next part]
||-------0------0-------0-------0----------0-------0------0-------0--||
||-----6------6-------6-------6----------6-------6------6-------6----||
|| --7------7-------7-------7----------7-------7-------7------7----- ||
|| 0------0-------0-------0----------5-------5-------5------5------- ||
||-------------------------------------------------------------------||
||-------------------------------------------------------------------||
(Repeat 4X; 2X without vocals, 2X with CSN-like vocals)
-----0----0----0----0------0----0----0----0---------------------------
----6----6----6----6------8----8----8----8----------------------------
---7----7----7----7------9----9----9----9-----back to verse (Gmaj7)
--8----8----8----8-----10---10---10---10------------------------------
----------------------------------------------------------------------
----------------------------------------------------------------------
_______________________________________
| 2nd ending (instrumental..)
| (Strum chords)
G Gmaj7 C G Gmaj7 C Gm Eb C D
| beginning of keyboard solo
C(choke) Em(arpeggiate)| A5 G5 F#m__________etc.
|




Ваше мнение



Капча