Blood on the Rooftops
Genesis
Transcribed by Justin Benz
Guitar 1:10
G---|-----------------|-----------9-----------------|--------7-----------|------
D---|-----------------|--------9-----------9-----7--|-----------5--------|------
A---|-----------------|--7--------------7-----------|--5-----------------|------
E---|-----------------|-----------------------------|--------------------|------
B---|-----------------|-----------------------------|--------------------|------


G---------------------|----------13--14--------|--------7--------------|--------
D---------------------|------14----------------|--------------5--------|--------
A---7-----9-----7-----|--12--------------------|--5--------------------|--------
E---------------------|------------------------|-----------------------|--------
B---------------------|------------------------|-----------------------|--3-----


G------------------------|---------------------------|-----------9--------------
D------------------------|---------------------------|--------9--------9--------
A------------------------|--------3--------3-----(3)/|--7-----------------------
E------------------------|--5-----------3------------|--------------------------
B------2-----5-----4-----|---------------------------|--------------------------


G------|--------7-----------|--------------------|----------13--14--------|-----
D---7--|-----------5--------|--------------------|------14----------------|-----
A------|--5-----------------|--7-----9-----7-----|--12--------------------|-----
E------|--------------------|--------------------|------------------------|-----
B------|--------------------|--------------------|------------------------|-----


G---------7--------------|-----------------|--9--------------|------------------
D---------------5--------|-----------7-----|-----------7-----|--7--------7------
A---5--------------------|--7--------------|-----------------|------------------
E------------------------|-----------------|-----------------|------------------
B------------------------|-----------------|-----------------|------------------


G------|-----------------9--11--13-----|-----------------|-----------------|----
D------|--------------9----------------|--7--------7-----|--7--------7-----|----
A------|--7--------7-------------------|-----------------|-----------------|----
E------|-------------------------------|-----------------|-----------------|----
B------|-------------------------------|-----------------|-----------------|----

2:12
G------------------||---------------------------------|-------------------------
D------------------||---2-----2--4--5-----------------|-------------------------
A---7--------7-----||*--------------------5-----2-----|--0-----2-----4-----5----
E------------------||*--------------------------------|-------------------------
B------------------||---------------------------------|-------------------------


G---------------------------||--------------------------------|-----------------
D------5-----4--5-----4--7-||--2-----2--4--5-----------------|-----------------
A--------------------------*||--------------------5-----2-----|--0-----2--------
E--------------------------*||--------------------------------|-----------------
B---------------------------||--------------------------------|-----------------


G---------------------12|--------------------------------------|---------------
D---------------5--------|--------------------------------------|---------------
A---4-----5--------------|--------------------------2-----4--5--|---------------
E------------------------|--2--2-----0--2--3-----5--------------|--2--2---------
B------------------------|--------------------------------------|---------------


G---------|----------------------------|--9--------------|-----------------|----
D---------|----------------------------|-----------7-----|-----------7-----|----
A---------|-----------4-----4/7-----7--|-----------------|--7--------------|----
E---0--2--|--4-----4-------------------|-----------------|-----------------|----
B---------|----------------------------|-----------------|-----------------|----

3:00
G------------------|-----------9--------------|--------7-----------|------------
D------------------|--------9--------9-----7--|-----------5--------|------------
A---7--------------|--7-----------------------|--5-----------------|--7---------
E------------------|--------------------------|--------------------|------------
B------------------|--------------------------|--------------------|------------


G---------------|--------------14--------|--------7-----------|-----------------
D---------------|----------14------------|--------------5-----|-----------------
A---9-----7-----|--12--12----------------|--5-----------------|-----------------
E---------------|------------------------|--------------------|-----------------
B---------------|------------------------|--------------------|--3-----2--------


G---------------|---------------------------------------------|-----------9-----
D---------------|------------------10---------------10-----9--|--------9--------
A---------------|--------------10---------10------------------|--7--------------
E---------------|--5-----8--------------------8---------------|-----------------
B---5-----4-----|---------------------------------------------|-----------------


G---------------|--------7-----------|--------------------|----------13--14-----
D------9-----7--|-----------5--------|--------------------|------14-------------
A---------------|--5-----------------|--7-----9-----7-----|--12-----------------
E---------------|--------------------|--------------------|---------------------
B---------------|--------------------|--------------------|---------------------


G---------|--------7-----------|-----------------|--9--------------|------------
D---------|--------------5-----|-----------------|--7--------------|--7---------
A---------|--5-----------------|--7--------------|-----------------|--7---------
E---------|--------------------|-----------------|-----------------|------------
B---------|--------------------|-----------------|-----------------|------------

3:49
G------------||---------------------------------|-------------------------------
D------------||---2-----2--4--5-----------------|--------------------------5----
A------------||*--------------------5-----2-----|--0-----2-----4-----5----------
E------------||*--------------------------------|-------------------------------
B------------||---------------------------------|-------------------------------


G---------------------||--------------------------------|-----------------------
D------4--5-----4--7-||--2-----2--4--5-----------------|-----------------------
A--------------------*||--------------------5-----2-----|--0-----2-----4--------
E--------------------*||--------------------------------|-----------------------
B---------------------||--------------------------------|-----------------------


G---------------12|--------------------------------------|---------------------
D---------5--------|--4--------------------------------5--|--4------------------
A---5--------------|-----4--------------------2-----4-----|---------------------
E------------------|-----------0--2--3-----5--------------|-----2-----2--0------
B------------------|--------------------------------------|---------------------


G------|--------------------6------------||-------------------------------------
D------|---------------------------------||---2-----2--4--5---------------------
A------|--------2-----4--------4/7-----7||*--------------------5-----2---------
E---2--|--4------------------------------||*------------------------------------
B------|---------------------------------||-------------------------------------


G---|-----------------------------------------------||--------------------------
D---|--------------------------5-----4--5-----4--7-||--2-----2--4--5-----------
A---|--0-----2-----4-----5-------------------------*||--------------------5-----
E---|----------------------------------------------*||--------------------------
B---|-----------------------------------------------||--------------------------


G------------|--------------------------------12|------------------------------
D------------|--------------------------5--------|--4---------------------------
A------2-----|--0-----2-----4-----5--------------|------------------------------
E------------|-----------------------------------|-----2-----0--2--3-----5------
B------------|-----------------------------------|------------------------------


G---------------|--------------------|-------------------------------9--9--9----
D---------------|--------4-----------|------------------------------------------
A---2-----4--5--|-----4--------------|--------2-----4-----4--4/7----------------
E---------------|--2-----------0--2--|--4---------------------------------------
B---------------|--------------------|------------------------------------------

4:59
G---9--|-----------------|-----------9--11-----12--|--14--------16-----|--------
D------|-----------7-----|--9-----9----------------|-------------------|--------
A------|--7--------------|-----7-------------------|-------------------|--7-----
E------|-----------------|-------------------------|-------------------|--------
B------|-----------------|-------------------------|-------------------|--------

Guitars Fade Out
G---------------||--------------------------------------------------------------
D---------------||--------------------------------------------------------------
A---------------||--------------------------------------------------------------
E---------------||--------------------------------------------------------------
B---------------||--------------------------------------------------------------


================================================================================
== Created with a demo version of BUCKET O' TAB ==
== tablature creation software for Windows ==
== http://www.his.com/~gse/bucket ==
================================================================================




Ваше мнение



Капча