Gavin DeGraw - Follow Through
www.gavindegraw.com

(You are going to have to listen to the song for the stroking patterns,
these are just the notes)

I. Intro/Verse 1

E|----0----1----0-----0-----1-----3-------0---
B|----1-----1---1-1---0-----1-1---0-0-----1---
G|----0---2-----0------0---2------------0-0--- x2
D|---2---3-----2-----2----3------------2--2---
A|--3---------3-----2------------2----3---3---
E|------------------------------3-------------

And we can build through this destruction, as we are standing on our feet.
E|-1--------0--------1--------3-3-3-3-3-3-3-3--
B|-1--------1--------1--------0-0-0-0-0-0-0-0--
G|-2--------0--------2--------0-0-0-0-0-0-0-0--
D|-3--------2--------3--------0-0-0-0-0-0-0-0--
A|----------3-----------------2-2-2-2-2-2-2-2--
E|----------------------------3-3-3-3-3-3-3-3--
build standing
destruction feet

II. Chorus

E|-0------0------1------0-- -0------0------1------3-3-3-3-3-3-3-3
B|-0------1------1------1-- -0------1------1------0-0-0-0-0-0-0-0
B|-0------2------2------0-- -0------2------2------0-0-0-0-0-0-0-0
D|-2------2------3------2-- -2------2------3------0-0-0-0-0-0-0-0
A|-2------0-------------3-- -2------0-------------2-2-2-2-2-2-2-2
E|-0----------------------- -0--------------------3-3-3-3-3-3-3-3
So.....me....through..say...I.....you...around...day

E|-0-0-0-0-0-0-0-0-1-1-1-1-1-1-1-1-
B|-1-0-1-0-1-0-1-0-1-1-1-1-1-1-1-1-
G|-0-0-0-0-0-0-0-0-2-2-2-2-2-2-2-2-
D|-2-2-2-2-2-2-2-2-3-3-3-3-3-3-3-3- x2
A|-3-3-3-3-3-3-3-3-----------------
E|---------------------------------

III. Verse 2 (same as Verse 1)

IV. Chorus

V. Bridge

E|-0-0---0-0---0-0---------1--1---33-3-3---0-
B|-1-1---1-1---1-1---0-0---1--1---00-0-0---1-
G|-0-0---2-2---0-0---0-0---2--2---00-0-0---0- x2
D|-2-2---2-2---2-2---2-2---3--3---00-0-0---2-
A|-3-3---3-3---3-3---2-2----------22-2-2---3-
E|-------------------0-0----------33-3-3-----

E|-1------0------1------3-3-3-3-3-3-3-3-
B|-1------1------1------0-0-0-0-0-0-0-0-
G|-2------0------2------0-0-0-0-0-0-0-0-
D|-3------2------3------0-0-0-0-0-0-0-0-
A|--------3-------------2-2-2-2-2-2-2-2-
E|----------------------3-3-3-3-3-3-3-3-

VI. Chorus x2

VII. Outro (same as Intro)




Ваше мнение



Капча