Author/Artist: GATES OF ISHTAR
Title: Wounds
Album: AT DUSK AND FOREVER
Transcribed by: Hakuja
URL: http://funeralelegy.net/fw/
Email: [email protected]
Ver. 1.0 (99/12/03)
Explanation of a sign
h : hammer on p : pull on
g : grissando s : slide
c,hc,1hc : bend ^ : tie
Tuning : 1 down (6 : D)
Part A - 4 times Repeat
#||---------------------------------------|--------------------------------------|
#||---------------------------------------|--------------------------------------|
#||o--------------------------------------|-----------------o-/------------------|
#||o--------------------------------------|------------------/-o-----------------|
#||---7--------------------------7--p5----|--------------------------------------|
#||------------0---0----0---0-------------|--------------------------------------|
1 2 3 4 1 2 3 4
|--------------------------------------|--------------------------------------|
|--------------------------------------|--------------------------------------|
|--------------------------------------|--------------------------------------|
|--------------------------------------|--------------------------------------|
|--3-----------------3-----------------|--5-----------------5--------6--------|
|-----------0---0-------------0---0----|-----------0---0----------------------|
1 2 3 4 | 1 2 3 4 |
| |
| |
|--------------------------------------|
|--------------------------------------|
|--------------------------------------|
|--------------------------------------|
|--5-----------------5--------2--------|
|-----------0---0----------------------|
1 2 3 4
|--------------------------------------|--------------------------------------|
|--------------------------------------|--------------------------------------|
|--------------------------------------|-----------------o-/------------------|
|--------------------------------------|------------------/-o-----------------|
|--7--------------------------7--p5----|--------------------------------------|
|-----------0---0----0---0-------------|--------------------------------------|
1 2 3 4 1 2 3 4
|--------------------------------------|---------------------------------------||#
|--------------------------------------|------------__3__----------------------||#
|--------------------------------------|-----------|--|--|--------------------o||#
|--------------------------------------|--5--------4-h5-p4--------------------o||#
|--3-----------------3-----------------|--------------------7--------6---------||#
|-----------0---0-------------0---0----|---------------------------------------||#
1 2 3 4 | 1 2 3 4 ||
| ||
| ||
|---------------------------------------||#
|---------------------------------------||#
|------------__3__---------------------o||#
|-----------|--|--|--------------------o||#
|--5--------5-h7-p5--3--------2---------||#
|---------------------------------------||#
1 2 3 4 (End of Part A)

Part A' A‚Мѓnѓ‚‚и
ѓCѓ“ѓgѓЌ‚М3‰с–Ъ‚©‚з‚ЖЃAЌЕЏ‰‚М‰М‚М2‰с–Ъ‚©‚з‚ЕЏo‚Д‚­‚й
#||---------------------------------------|--------------------------------------|
#||---------------------------------------|--------------------------------------|
#||o--------------------------------------|-----------------o-/------------------|
#||o--5--------------------------5--p4----|------------------/-o-----------------|
#||---------------------------------------|--------------------------------------|
#||------------0---0----0---0-------------|--------------------------------------|
1 2 3 4 1 2 3 4
|--------------------------------------|---------------------------------------||#
|--------------------------------------|---------------------------------------||#
|--------------------------------------|--------------------------------------o||#
|--------------------7--------7--p5----|--4--------5--h7----5--------4--------o||#
|--7-----------------------------------|---------------------------------------||#
|-----------0---0----------------------|---------------------------------------||#
1 2 3 4 1 2 3 4 (End of Part A')

Part B - 4 times Repeat
#||---------------------------------------|--------------------------------------|
#||---------------------------------------|--------------------------------------|
#||o-Ѓ~2€ИЌ~------------------------------|--------------------------------------|
#||o-(5)----------------------------------|--------------------5--------4--------|
#||---2-----------------------------------|-----------2--------------------------|
#||---0-----------------------------------|--------------------------------------|
1 2 3 4 1 2 3 4
|--------------------------------------|---------------------------------------||#
|--------------------------------------|---------------------------------------||#
|--------------------------------------|--------------------------------------o||#
|--5--------------------------5--s7----|--5-----------------4-----------------o||#
|--3-----------------------------------|---------------------------------------||#
|--------------------------------------|---------------------------------------||#
1 2 3 4 1 2 3 4 (End of Part B)
Play Part A - 4 times Repeat
Part C - 4 times Repeat
#||----------------------------------------|---------------------------------------|
#||----------------------------------------|---------------------------------------|
#||o------------------------------__3__----|------------------------------__3__----|
#||o-----------------------------|--|--|---|-----------------------------|--|--|---|
#||---7--------------------------7-h9-h10--|-----------------------------9-h10h12--|
#||------------0---0----0---0--------------|--8--------8---8----8---8--------------|
1 2 3 4 1 2 3 4
_________________
|1.3.
|--------------------------------------|---------------------------------------||
|--------------------------------------|---------------------------------------||
|--------------------------------------|--------------------------------------o||
|--------------------------------------|--------------------------------------o||
|--5--------5---5----5---5----5--------|--5-----------------9------------------||
|--------------------------------------|---------------------------------------||
1 2 3 4 | 1 2 3 4 ||
| ||
| ||
|---------------------------------------||
|---------------------------------------||
|--------------------------------------o||
|--------------------------------------o||
|--2-----------------5------------------||
|---------------------------------------||
1 2 3 4
_______________
|2.4.
|---------------------------------------||#
|---------------------------------------||#
|--------------------------------------o||#
|--------------------------------------o||#
|--7-----------------6------------------||#
|---------------------------------------||#
| 1 2 3 4 ||
| ||
| ||
|---------------------------------------||#
|---------------------------------------||#
|--------------------------------------o||#
|--------------------------------------o||#
|--3-----------------2------------------||#
|---------------------------------------||#
1 2 3 4 (End of Part C)

Part D - 8 times Repeat
#||-----------------------------------------||#
#||-----------------------------------------||#
#||o---------------------------------------o||#
#||o---------------------------------------o||#
#||---10------------------------------------||#
#||-------0-0--0---0-0--0---0-0--0---0-0----||#
|| 1 2 3 4 ||
|| ||
|| ||
#||-----------------------------------------||#
#||-----------------------------------------||#
#||o---------------------------------------o||#
#||o--9------------------------------------o||#
#||-----------------------------------------||#
#||-------0-0--0---0-0--0---0-0--0---0-0----||#
1 2 3 4 (End of Part D)

Part E - 4 times Repeat
#||---------------------------------------|----------------------------------------||#
#||---------------------------------------|--------------------------3-------------||#
#||o--------------------------------------|------------------------|=|=|----------o||#
#||o-----------5-----------------7--------|-----------5---9----7---5h7p5-4--------o||#
#||------g3----------------g5-------------|-----g7---------------------------5-----||#
#||---0-----------------0-----------------|--0-------------------------------------||#
1 2 3 4 1 2 3 4 (End of Part E)

Part F - 4 times Repeat
#||---------------------------------------|--------------------------------------|
#||---------------------------------------|--------------------------------------|
#||o--------------------------------------|--------------------------------------|
#||o--5-----------------4-----------------|--5-----------------------------------|
#||---------------------------------------|--------------------------------------|
#||---------------------------------------|--------------------------------------|
1 2 3 4 1 2 3 4
|--------------------------------------|---------------------------------------||#
|--------------------------------------|---------------------------------------||#
|--------------------------------------|--------------------------------------o||#
|--5-----------------4-----------------|--5-----------------------------------o||#
|--------------------------------------|---------------------------------------||#
|--------------------------------------|------0-0--0---0-0--0---0-0--0---0-0---||#
1 2 3 4 1 2 3 4 (End of Part F)
Play Part A - 3 times Repeat
Play Part C - 4 times Repeat
Play Part B - 4 times Repeat
Part G - 4 times Repeat
#||---------------------------------------|--------------------------------------|
#||---------------------------------------|--------------------------------------|
#||o--------------------------------------|--------------------------------------|
#||o--9-7-5-------------------------------|--9-7-5-------------9--------7--------|
#||---------9--7-5-7----------------------|--------9--7-5-7----------------------|
#||---------------------------------------|--------------------------------------|
|| 1 2 3 4 | 1 2 3 4 |
|| | |
|| | |
#||---------------------------------------|--------------------------------------|
#||---------------------------------------|--------------------------------------|
#||o--------------------------------------|--------------------------------------|
#||o--------------------------------------|--5-----------------5--------4--------|
#||---2-----------------------------------|--3-----------------5--------5--------|
#||---0-----------------------------------|--------------------------------------|
1 2 3 4 | 1 2 3 4
|--------------------------------------|---------------------------------------||#
|--------------------------------------|---------------------------------------||#
|--------------------------------------|--------------------------------------o||#
|--9-7-5-------------------------------|--9-7-5-------------5--------4--------o||#
|--------9--7-5-7----------------------|--------9--7-5-7-----------------------||#
|--------------------------------------|---------------------------------------||#
| 1 2 3 4 | 1 2 3 4 ||
| | ||
| | ||
|--------------------------------------|---------------------------------------||#
|--------------------------------------|---------------------------------------||#
|--------------------------------------|--------------------------------------o||#
|--------------------------------------|--5-----------------5--------4--------o||#
|--2-----------------------------------|--3-----------------5--------5---------||#
|--0-----------------------------------|---------------------------------------||#
1 2 3 4 | 1 2 3 4 (End of Part G)
Play Part A - 3 times Repeat
Part H - 4 times Repeat
#||---------------------------------------|---------------------------------------||#
#||---------------------------------------|---------------------------------------||#
#||o------9--------9--------11-------11---|------12-------14---12--11------------o||#
#||o--10-------10-------12-------12-------|--14-------14----------------14--12---o||#
#||---------------------------------------|---------------------------------------||#
#||---------------------------------------|---------------------------------------||#
1 2 3 4 1 2 3 4 (End of Part H)
Play Part E - 4 times Repeat
Play Part F - 1000 times Repeat
==== END OF TAB ====




Ваше мнение



Капча