Author/Artist: GATES OF ISHTAR
Title: Trail Of Tears
Album: THE DAWN OF FLAMES
Transcribed by: Hakuja
URL: http://funeralelegy.net/fw/
Email: [email protected]
Ver. 1.0 (99/11/28)
Explanation of a sign
h : hammer on p : pull on
g : grissando s : slide
c,hc,1hc : bend ^ : tie
Tuning : 1 down (6 : D)
Part A - 4 times Repeat
#||---------------------------------------|--------------------------------------|
#||---------------------------------------|--------------------------------------|
#||o--------------------------------------|--------------------------------------|
#||o--------------------------------------|--------------------------------------|
#||---5--2--2--5--2--2--5--2--2--4--0--0--|--0--------0--------2--------2--------|
#||---------------------------------------|-----2--2-----2--2-----3--3-----3--3--|
1 2 3 4 1 2 3 4
|--------------------------------------|---------------------------------------||#
|--------------------------------------|---------------------------------------||#
|--------------------------------------|--------------------------------------o||#
|--------------------------------------|--4--------4--------2--------2--------o||#
|--5--2--2--5--2--2--5--2--2--4--0--0--|-----5--5-----5--5-----4--4------------||#
|--------------------------------------|---------------------------------------||#
1 2 3 4 1 2 3 4 (End of Part A)

Part B-1 Bass solo
#||---------------------------------------|--------------------------------------|
#||---------------------------------------|--------------------------------------|
#||o--------------------------------------|--------------------------------------|
#||o--------------------------------------|--------------------------------------|
#||---------------------------------------|--------------------------------------|
#||---------------------------------------|--------------------------------------|
1 2 3 4 1 2 3 4
|--------------------------------------|---------------------------------------||#
|--------------------------------------|---------------------------------------||#
|--------------------------------------|--------------------------------------o||#
|--------------------------------------|-----------5-----4-----------5-----4--o||#
|-----------------------------gxg------|---------------------------------------||#
|--------------------------------------|--2--2--2-----2-----3--3--3-----3------||#
1 2 3 4 1 2 3 4 (End of Part B-1)

Part B-2 - 2 times Repeat
#||---------------------------------------|--------------------------------------|
#||---------------------------------------|--------------------------------------|
#||o--------------------------------------|--------------------------------------|
#||o-----------5-----4-----------5-----4--|-----------5-----4-----------5-----4--|
#||---2--2--2-----2-----2--2--2-----2-----|--------------------------------------|
#||---------------------------------------|--3--3--3-----3-----3--3--3-----3-----|
1 2 3 4 1 2 3 4
|--------------------------------------|---------------------------------------||#
|--------------------------------------|---------------------------------------||#
|--------------------------------------|--------------------------------------o||#
|-----------5-----4-----------5-----4--|-----------5-----4-----------5-----4--o||#
|--0--0--0-----0-----0--0--0-----0-----|---------------------------------------||#
|--------------------------------------|--2--2--2-----2-----3--3--3-----3------||#
1 2 3 4 1 2 3 4 (End of Part B-2)

Part C-1
#|--------------------------------------|--------------------------------------|
#|--------------------------------------|--------------------------------------|
#|--------------------------------------|--------------------------------------|
#|--------------------------------------|--------------------------------------|
#|--7--------9--------10-------12-------|--7--------9--------10-------12-------|
#|-----0--0-----0--0-----0--0-----------|-----8--8-----8--8-----8--8-----------|
1 2 3 4 1 2 3 4
|--------------------------------------|--------------------------------------|#
|--------------------------------------|--------------------------------------|#
|--------------------------------------|--------------------------------------|#
|--------------------------------------|--------------------------------------|#
|--9--------10-------12-------9--------|--5--------7--------9--------5--------|#
|-----10-10----10-10----10-10----------|-----7--7-----7--7-----7--7-----------|#
1 2 3 4 1 2 3 4 (End of Part C-1)

Part C-2
#|--------------------------------------|--------------------------------------|
#|--------------------------------------|--------------------------------------|
#|--------------------------------------|--------------------------------------|
#|--------------------------------------|--------------------------------------|
#|--2--------------------------12-------|--7--------9--------10-------12-------|
#|--0-----------------------------------|-----8--8-----8--8-----8--8-----------|
1 2 3 4 1 2 3 4
|--------------------------------------|--------------------------------------|#
|--------------------------------------|--------------------------------------|#
|--------------------------------------|--------------------------------------|#
|--------------------------------------|--------------------------------------|#
|--9--------10-------12-------9--------|--5--------7--------9--------5--------|#
|-----10-10----10-10----10-10----------|-----7--7-----7--7-----7--7-----------|#
1 2 3 4 1 2 3 4 (End of Part C-2)
Play Part C-1 Ѓ~ 2
Play Part B-2 Ѓ~ 2
Play Part A
Part D - 4 times Repeat
#||---------------------------------------|---------------------------------------||#
#||---------------------------------------|---------------------------------------||#
#||o--------------------------------------|--------------------------------------o||#
#||o--9--------7--------10-------9--------|--9--------7--------9--7--------------o||#
#||---------------------------------------|--------------------------10-9-----9---||#
#||------0--0-----0--0-----0--0-----------|-----0--0-----0--0--------------0------||#
|| 1 2 3 4 | 1 2 3 4 ||
|| | ||
|| | ||
#||---------------------------------------|---------------------------------------||#
#||---------------------------------------|---------------------------------------||#
#||o--------------------------------------|--------------------------------------o||#
#||o--5--------4--------7--------5--------|--5--------4--------5--4--------------o||#
#||---------------------------------------|--------------------------7--5-----5---||#
#||------0--0-----0--0-----0--0-----------|-----0--0-----0--0--------------0------||#
1 2 3 4 1 2 3 4 (End of Part D)

Part E - 4 times Repeat
#||---------------------------------------|--------------------------------------|
#||---------------------------------------|--------------------------------------|
#||o--------------------------------------|--------------------------------------|
#||o--9--------7--------10-------9--------|--9--------7--------------------------|
#||---------------------------------------|--------------------9--------5--------|
#||------0--0-----0--0-----0--0-----------|-----0--0-----0--0-----0--0-----------|
|| 1 2 3 4 | 1 2 3 4 |
|| | |
|| | |
#||---------------------------------------|--------------------------------------|
#||---------------------------------------|--------------------------------------|
#||o--------------------------------------|--------------------------------------|
#||o--5--------4--------7--------5--------|--5--------4--------------------------|
#||---------------------------------------|--------------------5--------2--------|
#||------0--0-----0--0-----0--0-----------|-----0--0-----0--0-----0--0-----------|
1 2 3 4 1 2 3 4
|--------------------------------------|---------------------------------------||#
|--------------------------------------|---------------------------------------||#
|--------------------------------------|--------------------------------------o||#
|--9--------7--------10-------9--------|--9--------7--------------------------o||#
|--------------------------------------|--------------------5--------7---------||#
|-----0--0-----0--0-----0--0-----------|-----0--0-----0--0-----0--0------------||#
| 1 2 3 4 | 1 2 3 4 ||
| | ||
| | ||
|--------------------------------------|---------------------------------------||#
|--------------------------------------|---------------------------------------||#
|--------------------------------------|--------------------------------------o||#
|--5--------4--------7--------5--------|--5--------4--------------------------o||#
|--------------------------------------|--------------------2--------7---------||#
|-----0--0-----0--0-----0--0-----------|-----0--0-----0--0-----0--0------------||#
1 2 3 4 1 2 3 4 (End of Part E)
Play Part C-1
Play Part C-2
Play Part C-1 Ѓ~ 2
Play Part A Ѓ~ 4
Part E - 2 times Repeat
#||---------------------------------------|--------------------------------------|
#||---------------------------------------|--------------------------------------|
#||o--------------------------------------|----------------o-/-------------------|
#||o--------------------------------------|-----------------/-o------------------|
#||---7--------9--------10-------12-------|--------------------------------------|
#||---------------------------------------|--------------------------------------|
|| 1 2 3 4 | 1 2 3 4 |
|| | |
|| | |
#||---------------------------------------|--------------------------------------|
#||---------------------------------------|--------------------------------------|
#||o--------------------------------------|--------------------------------------|
#||o--------------------------------------|--5-----------------------------------|
#||---2-----------------------------------|--3-----------------------------------|
#||---0-----------------------------------|--------------------------------------|
1 2 3 4 1 2 3 4
|--------------------------------------|---------------------------------------||#
|--------------------------------------|---------------------------------------||#
|--------------------------------------|--------------------------------------o||#
|--------------------------------------|--------------------------------------o||#
|--9--------10-------12-------9--------|--6--------7--------9--------6---------||#
|--------------------------------------|---------------------------------------||#
| 1 2 3 4 | 1 2 3 4 ||
| | ||
| | ||
|--------------------------------------|---------------------------------------||#
|--------------------------------------|---------------------------------------||#
|--------------------------------------|--------------------------------------o||#
|--7-----------------------------------|--4-----------------------------------o||#
|--5-----------------------------------|--2------------------------------------||#
|--------------------------------------|---------------------------------------||#
1 2 3 4 1 2 3 4 (End of Part E)
Play Part C-1 Ѓ~ 2
Part F
#|--------------------------------------|#
#|--------------------------------------|#
#|--------------------------------------|#
#|--7--7--7--7--------------------------|#
#|--------------------------------------|#
#|--------------------------------------|#
| 1 2 3 4 |
| |
| |
#|--------------------------------------|#
#|--------------------------------------|#
#|--------------------------------------|#
#|--10-10-10-10-------------------------|#
#|--------------------------------------|#
#|--------------------------------------|#
1 2 3 4 (End of Part F)
==== END OF TAB ====




Ваше мнение



Капча