Author/Artist: GATES OF ISHTAR
Title: Forever Scarred
Album: THE DAWN OF FLAMES
Transcribed by: Hakuja
URL: http://funeralelegy.net/fw/
Email: [email protected]
Ver. 1.0 (99/12/14)
Explanation of a sign
h : hammer on p : pull on
g : grissando s : slide
c,hc,1hc : bend ^ : tie
Tuning : 1 down (6 : D)
Part A - 2 times Repeat
#||---------------------------------------|---------------------------------------|
#||---------------------------------------|---------------------------------------|
#||o--------------------------------------|---------------------------------------|
#||o--------------------------------------|---------------------------------------|
#||---------------------10-10-10-9--9--9--|--------------------9--9--9--10-10-10--|
#||---0--0--0--0--0--0--------------------|--0--0--0--0--0--0---------------------|
|| 1 2 3 4 | 1 2 3 4 |
|| | |
|| | |
#||---------------------------------------|---------------------------------------|
#||---------------------------------------|---------------------------------------|
#||o--------------------------------------|---------------------------------------|
#||o--------------------------------------|---------------------------------------|
#||---------------------7--7--7--5--5--5--|--------------------5--5--5--7--7--7---|
#||---0--0--0--0--0--0--------------------|--0--0--0--0--0--0---------------------|
1 2 3 4 1 2 3 4
|--------------------------------------|----------------------------------------||#
|--------------------------------------|----------------------------------------||#
|--------------------------------------|---------------------------------------o||#
|--------------------------------------|---------------------------------------o||#
|--7--7--7--7--7--7--10-10-10-10-10-10-|--9--9--9--9--9--9--12-12-12-12-12-12---||#
|--------------------------------------|----------------------------------------||#
| 1 2 3 4 | 1 2 3 4 ||
| | ||
| | ||
|--------------------------------------|----------------------------------------||#
|--------------------------------------|----------------------------------------||#
|--------------------------------------|---------------------------------------o||#
|--------------------------------------|---------------------------------------o||#
|--3--3--3--3--3--3--3--3--3--3--3--3--|--5--5--5--5--5--5--5--5--5--5--5--5----||#
|--------------------------------------|----------------------------------------||#
1 2 3 4 1 2 3 4 (End of Part A)


Part A' - 2 times Repeat
PartA‚М‚Q–{‚ЙЃA‚і‚з‚ЙЏd‚Л‚й
#||---------------------------------------|--------------------------------------|
#||---------------------------------------|--------------------------------------|
#||o--------------------------------------|--------------------------------------|
#||o--------------------9--9--9--7--7--7--|--------------------7--7--7--9--9--9--|
#||---------------------------------------|--------------------------------------|
#||---0--0--0--0--0--0--------------------|--0--0--0--0--0--0--------------------|
1 2 3 4 1 2 3 4
|--------------------------------------|---------------------------------------||#
|--------------------------------------|---------------------------------------||#
|--------------------------------------|--------------------------------------o||#
|--------------------9--9--9--9--9--9--|--7--7--7--7--7--7--------------------o||#
|--7--7--7--7--7--7--------------------|--------------------9--9--9--9--9--9---||#
|--------------------------------------|---------------------------------------||#
1 2 3 4 1 2 3 4 (End of Part A')

Part B - 2 times Repeat
#||---------------------------------------|--------------------------------------|
#||---------------------------------------|--------------------------------------|
#||o--------------------------------------|--------------------------------------|
#||o--------------------------------------|--------------------------------------|
#||---7--7--7--10-10-10-9--9--9--7--7--7--|--5--5--5--9--9--9--7--7--7--5--5--5--|
#||---------------------------------------|--------------------------------------|
|| 1 2 3 4 | 1 2 3 4 |
|| | |
|| | |
#||---------------------------------------|--------------------------------------|
#||---------------------------------------|--------------------------------------|
#||o--------------------------------------|--------------------------------------|
#||o--------------------------------------|--4--4--4--4--4--4--4--4--4--4--4--4--|
#||---2--2--2--2--2--2--2--2--2--2--2--2--|--2--2--2--2--2--2--2--2--2--2--2--2--|
#||---0--0--0--0--0--0--0--0--0--0--0--0--|--------------------------------------|
1 2 3 4 1 2 3 4
______________
|1.
|--------------------------------------|---------------------------------------||
|--------------------------------------|---------------------------------------||
|--------------------------------------|--------------------------------------o||
|--------------------------------------|--------------------------------------o||
|--7--7--7--10-10-10-9--9--9--7--7--7--|--3--3--3--7--7--7--5--5--5--6---------||
|--------------------------------------|---------------------------------------||
| 1 2 3 4 | 1 2 3 4 ||
| | ||
| | ||
|--------------------------------------|---------------------------------------||
|--------------------------------------|---------------------------------------||
|--------------------------------------|--------------------------------------o||
|--5--5--5--5--5--5--5--5--5--5--5--5--|--------------------------------------o||
|--3--3--3--3--3--3--3--3--3--3--3--3--|--3--3--3--3--3--3--3--3--3--6---------||
|--------------------------------------|--5--5--5--5--5--5--5--5--5--7---------||
1 2 3 4 1 2 3 4
______________
|2.
|--------------------------------------|--------------------------------------|#
|--------------------------------------|--------------------------------------|#
|--------------------------------------|--------------------------------------|#
|--------------------------------------|--------------------------------------|#
|--7--7--7--10-10-10-9--9--9--7--7--7--|--9--9--9--12-12-12-10-10-10-6--------|#
|--------------------------------------|--------------------------------------|#
| 1 2 3 4 | 1 2 3 4 |
| | |
| | |
|--------------------------------------|--------------------------------------|#
|--------------------------------------|--------------------------------------|#
|--------------------------------------|--------------------------------------|#
|--5--5--5--5--5--5--5--5--5--5--5--5--|--4--4--4--4--4--4--4--4--4-----------|#
|--3--3--3--3--3--3--3--3--3--3--3--3--|--5--5--5--5--5--5--5--5--5--6--------|#
|--------------------------------------|-----------------------------7--------|#
1 2 3 4 1 2 3 4 (End of Part B)
Play Part A - 2 times Repeat
Play Part A' - 2 times Repeat
Play Part B - 4 times Repeat
Part C - 4 times Repeat
#||---------------------------------------|--------------------------------------|
#||---------------------------------------|--------------------------------------|
#||o--------------------------------------|-----------------o-/------------------|
#||o--5--5--5--7--7--7--9--9--9--5--5--5--|------------------/-o-----------------|
#||---------------------------------------|--------------------------------------|
#||---------------------------------------|--------------------------------------|
|| 1 2 3 4 | 1 2 3 4 |
|| | |
|| | |
#||---------------------------------------|--------------------------------------|
#||---------------------------------------|--------------------------------------|
#||o--------------------------------------|-----------------o-/------------------|
#||o--------------------------------------|------------------/-o-----------------|
#||---7--7--7--9--9--9--10-10-10-7--7--7--|--------------------------------------|
#||---------------------------------------|--------------------------------------|
1 2 3 4 1 2 3 4
______________
|1.
|--------------------------------------|---------------------------------------||
|--------------------------------------|---------------------------------------||
|--------------------------------------|-----------------o-/------------------o||
|--9--9--9--7--7--7--5--5--5--7--7--7--|------------------/-o-----------------o||
|--------------------------------------|---------------------------------------||
|--------------------------------------|---------------------------------------||
| 1 2 3 4 | 1 2 3 4 ||
| | ||
| | ||
|--------------------------------------|---------------------------------------||
|--------------------------------------|---------------------------------------||
|--------------------------------------|-----------------o-/------------------o||
|--------------------------------------|------------------/-o-----------------o||
|--10-10-10-9--9--9--7--7--7--9--9--9--|---------------------------------------||
|--------------------------------------|---------------------------------------||
1 2 3 4 1 2 3 4
______________
|2.
|--------------------------------------|--------------------------------------|#
|--------------------------------------|--------------------------------------|#
|--------------------------------------|--------------------------------------|#
|--9--9--9--7--7--7--5--5--5--7--7--7--|--7--7--7--9--9--9--10-10-10-7--------|#
|--------------------------------------|--------------------------------------|#
|--------------------------------------|--------------------------------------|#
| 1 2 3 4 | 1 2 3 4 |
| | |
| | |
|--------------------------------------|--------------------------------------|#
|--------------------------------------|--------------------------------------|#
|--------------------------------------|--------------------------------------|#
|--------------------------------------|--------------------------------------|#
|--10-10-10-9--9--9--7--7--7--9--9--9--|--9--9--9--10-10-10-12-12-12-9--------|#
|--------------------------------------|--------------------------------------|#
1 2 3 4 1 2 3 4 (End of Part C)

Part D - 4 times Repeat
#||---------------------------------------|--------------------------------------|
#||---------------------------------------|--------------------------------------|
#||o--------------------------------------|--------------------------------------|
#||o--------------------------------------|--2--2--2--2--2--2--2--2--2--2--2--2--|
#||---2--2--2--2--2--2--2--2--2--2--2--2--|--3--3--3--3--3--3--3--3--3--3--3--3--|
#||---0--0--0--0--0--0--0--0--0--0--0--0--|--------------------------------------|
1 2 3 4 1 2 3 4
______________
|1.3.
|--------------------------------------|---------------------------------------||
|--------------------------------------|---------------------------------------||
|--------------------------------------|--------------------------------------o||
|--5--5--5--5--5--5--5--5--5--5--5--5--|--1--1--1--1--1--1--2--------4--------o||
|--5--5--5--5--5--5--5--5--5--5--5--5--|--2--2--2--2--2--2--3--------5---------||
|--------------------------------------|---------------------------------------||
1 2 3 4 1 2 3 4
______________
|2.4.
|--------------------------------------|---------------------------------------||#
|--------------------------------------|---------------------------------------||#
|--------------------------------------|--------------------------------------o||#
|--5--5--5--5--5--5--5--5--5--5--5--5--|--4--4--4--4--4--4--1-----------------o||#
|--5--5--5--5--5--5--5--5--5--5--5--5--|--5--5--5--5--5--5--2------------------||#
|--------------------------------------|---------------------------------------||#
1 2 3 4 1 2 3 4 (End of Part )
Play Part A' - 4 times Repeat
Play Part B - 4 times Repeat
Play Part C - 4 Ѓ~ 4 times Repeat
Part E
#|--------------------------------------|#
#|--------------------------------------|#
#|--------------------------------------|#
#|--------------------------------------|#
#|--2-----------------------------------|#
#|--0-----------------------------------|#
1 2 3 4 (End of Part E)
==== END OF TAB ====




Ваше мнение



Капча