Author/Artist: GATES OF ISHTAR
Title: Eternal Sin
Album: THE DAWN OF FLAMES
Transcribed by: Hakuja
URL: http://funeralelegy.net/fw/
Email: [email protected]
Ver. 1.0 (02/04/19)
Explanation of a sign
h : hammer on p : pull on
g : grissando s : slide
c,hc,1hc : bend ^ : tie
Tuning : 1 down (6 : D)
*** time - 0:00
Part_A
Repeat it 4 times.
#||--------------|-------------|-------------|-------------||#
#||--------------|-------------|-------------|-------------||#
#||o-------------|-------------|-------------|------------o||#
#||o-------------|-----7~-9~---|-------------|------------o||#
#||------10~9~---|-------------|--5~-10~9~---|-----9~-10~--||#
#||---0~---------|--8~---------|-------------|--7~---------||#
1 2 3 1 2 3 1 2 3 1 2 3 (End Of Part_A)
*** time - 0:17
Part_B
Repeat it 3 times.
#||-----------------|----------------|----------------|----------------|
#||-----------------|----------------|----------------|----------------|
#||o----------------|----------------|----------------|----------------|
#||o--9~-------4~---|--5~-4~-2~-1~---|--9~-------4~---|--5~-9~-7~-10~--|
#||---7~-------5~---|--7~-5~-3~-2~---|--7~-------5~---|--7~-10~9~-12~--|
#||-----------------|----------------|----------------|----------------|
1 2 3 4 1 2 3 4 1 2 3 4 1 2 3 4
|----------------|----------------|----------------|-----------------||#
|----------------|----------------|----------------|-----------------||#
|----------------|----------------|----------------|----------------o||#
|--9~-------4~---|--5~-4~-2~-1~---|----------------|----------------o||#
|--7~-------5~---|--7~-5~-3~-2~---|--3~------------|--2~----6~-------||#
|----------------|----------------|--4~------------|--3~----7~-------||#
1 2 3 4 1 2 3 4 1 2 3 4 1 2 3 4 (End of Part_B)
*** time - 0:53
Part_C
Repeat it 2 times.
#||-----------------|----------------|----------------|-----------------||#
#||-----------------|----------------|----------------|-----------------||#
#||o----------------|----------------|----------------|----------------o||#
#||o----------------|-----9~-7~------|--7~------------|-----------7~---o||#
#||---7~-9~-10~9~---|--7~-------10~--|-----9~-7~------|--7~-9~-10~------||#
#||-----------------|----------------|-----------10~--|-----------------||#
1 2 3 4 1 2 3 4 1 2 3 4 1 2 3 4 (End of Part_C)
*** time - 1:06
Play Part_B
Repeat it 2 times.

*** time - 1:31
Play Part_C
Repeat it 4 times.

*** time - 1:56
Part_D
#|----------------|----------------|
#|----------------|----------------|
#|----------------|----------------|
#|-----------7~---|--9~------------|
#|--10~-----------|--------9~-10~--|
#|----------------|----------------|
| 1 2 3 4 | 1 2 3 4 |
| | |
| | |
#|----------------|----------------|
#|----------------|----------------|
#|----------------|----------------|
#|--9~------------|--9~----7~------|
#|--7~------------|--7~----5~------|
#|----------------|----------------|
1 2 3 4 1 2 3 4
Repeat it 2 times.
||------------------|----------------|-----------------|----------------|
||------------------|----------------|-----------------|----------------|
||o-----------------|------o-/-------|-------o-/-------|------o-/-------|
||o--5~---4~--------|-------/-o------|--------/-o------|-------/-o------|
||------------------|----------------|-----------------|----------------|
||------------------|----------------|-----------------|----------------|
|| 1 2 3 4 | 1 2 3 4 | 1 2 3 4 | 1 2 3 4 |
|| | | | |
|| | | | |
||------------------|----------------|-----------------|----------------|
||------------------|----------------|-----------------|----------------|
||o-----------------|------o-/-------|-----------------|------o-/-------|
||o--5~---4~--------|-------/-o------|--5~---4~--------|-------/-o------|
||---3~---3~--------|----------------|--2~---2~--------|----------------|
||------------------|----------------|-----------------|----------------|
1 2 3 4 1 2 3 4 1 2 3 4 1 2 3 4
_______________
|1.
|-----------------|-----------------|----------------|---------------------||
|-----------------|-----------------|----------------|---------------------||
|-----------------|-----------------|----------------|--------------------o||
|--7~---5~--------|--7~---5~---7~---|--9~------------|--9~-7~-----5~-4~---o||
|-----------------|-----------------|----------------|---------------------||
|-----------------|-----------------|----------------|---------------------||
| 1 2 3 4 | 1 2 3 4 | 1 2 3 4 | 1 2 3 4 ||
| | | | ||
| | | | ||
|-----------------|-----------------|----------------|---------------------||
|-----------------|-----------------|----------------|---------------------||
|-----------------|-----------------|----------------|--------------------o||
|--4~---2~--------|--4~---2~---4~---|--9~------------|--9~-9~9s11-9~-7~---o||
|--0~---0~--------|--0~---0----0~---|--7~------------|--7~-7~7s9--7~-5~----||
|-----------------|-----------------|----------------|---------------------||
1 2 3 4 1 2 3 4 1 2 3 4 1 2 3 4
_______________
|2.
|-----------------|-----------------|----------------|---------------------||#
|-----------------|-----------------|----------------|---------------------||#
|-----------------|-----------------|----------------|--------------------o||#
|--7~---5~--------|--7~---5~---7~---|--9~------------|--9~----------------o||#
|-----------------|-----------------|----------------|---------------------||#
|-----------------|-----------------|----------------|---------------------||#
| 1 2 3 4 | 1 2 3 4 | 1 2 3 4 | 1 2 3 4 ||
| | | | ||
| | | | ||
|-----------------|-----------------|----------------|---------------------||#
|-----------------|-----------------|----------------|---------------------||#
|-----------------|-----------------|----------------|--------------------o||#
|--4~---2~--------|--4~---2~---4~---|--9~------------|--9~----------------o||#
|--0~---0~--------|--0~---0----0~---|--7~------------|--7~-----------------||#
|-----------------|-----------------|----------------|---------------------||#
1 2 3 4 1 2 3 4 1 2 3 4 1 2 3 4 (End of Part_D)

*** time - 2:23
Play Part_A
Repeat it 4 times.
*** time - 2:40
Play Part_B
Repeat it 3 times.
*** time - 3:17
Play Part_C
Repeat it 4 times.
*** time - 3:41
Part_D'
#|----------------|----------------|
#|----------------|----------------|
#|----------------|----------------|
#|-----------7~---|--9~------------|
#|--10~-----------|--------9~-10~--|
#|----------------|----------------|
| 1 2 3 4 | 1 2 3 4 |
| | |
| | |
#|----------------|----------------|
#|----------------|----------------|
#|----------------|----------------|
#|--9~------------|--9~----7~------|
#|--7~------------|--7~----5~------|
#|----------------|----------------|
1 2 3 4 1 2 3 4
Repeat it many times.
||------------------|----------------|-----------------|----------------|
||------------------|----------------|-----------------|----------------|
||o-----------------|------o-/-------|-------o-/-------|------o-/-------|
||o--5~---4~--------|-------/-o------|--------/-o------|-------/-o------|
||------------------|----------------|-----------------|----------------|
||------------------|----------------|-----------------|----------------|
|| 1 2 3 4 | 1 2 3 4 | 1 2 3 4 | 1 2 3 4 |
|| | | | |
|| | | | |
||------------------|----------------|-----------------|----------------|
||------------------|----------------|-----------------|----------------|
||o-----------------|------o-/-------|-----------------|------o-/-------|
||o--5~---4~--------|-------/-o------|--5~---4~--------|-------/-o------|
||---3~---3~--------|----------------|--2~---2~--------|----------------|
||------------------|----------------|-----------------|----------------|
1 2 3 4 1 2 3 4 1 2 3 4 1 2 3 4
|-----------------|-----------------|----------------|---------------------||
|-----------------|-----------------|----------------|---------------------||
|-----------------|-----------------|----------------|--------------------o||
|--7~---5~--------|--7~---5~---7~---|--9~------------|--9~-7~-----5~-4~---o||
|-----------------|-----------------|----------------|---------------------||
|-----------------|-----------------|----------------|---------------------||
| 1 2 3 4 | 1 2 3 4 | 1 2 3 4 | 1 2 3 4 ||
| | | | ||
| | | | ||
|-----------------|-----------------|----------------|---------------------||
|-----------------|-----------------|----------------|---------------------||
|-----------------|-----------------|----------------|--------------------o||
|--4~---2~--------|--4~---2~---4~---|--9~------------|--9~-9~9s11-9~-7~---o||
|--0~---0~--------|--0~---0----0~---|--7~------------|--7~-7~7s9--7~-5~----||
|-----------------|-----------------|----------------|---------------------||
1 2 3 4 1 2 3 4 1 2 3 4 1 2 3 4 (End of Part_D')
=== END OF TAB ===




Ваше мнение



Капча