----------------------------------------------------------------------------
wishing well - Gary Moore
----------------------------------------------------------------------------
Tabbed by:C J Riley
Email:[email protected]
Tuning:standard
intro:
1st guitar
e|--------------------[---------------3----------------------------|
B|--------------------[---------------3----------------------------|
G|--------------------[---------------0----------------------------|
D|-2-0----------------[-------2-0-----0----------------------------|
A|-----3-0---3-0------[-----------3-0-2----------------------------|
E|----------------3---[---------------3----------------------------|
X3
2nd guitar
e|-------------------------------[---------------3------------------|
B|--5-3h5p3----------------------[---5-3h5p3-----3------------------|
G|-----------5-2---5-2h5p2-------[----------5-2--0------------------|
D|--------------------------5-2--[---------------0------------------|
A|-------------------------------[---------------2------------------|
E|-------------------------------[---------------3------------------|
(solo) - he imrovises something in the key of E
Verse:
(it sounds good so....) Bass arr. for guitar
e|--------------------------------------------------------------|
B|--------------------------------------------------------------|
G|------------------------5------7---9--------------------------|
D|----------------------5------7-----9--------------------------|
A|--------------------3------5-------7--------------------------|
E|-0-0-0-0-0-0-0-0-0--------------------------------------------|
Guitars 1+2 play:
e|-----------------------------------------------------------------|
B|-----------------------------------------------------------------|
G|--------------------5-/----7--/---9------------------------------|
D|--------------------5-/----7--/---9------------------------------|
A|--------------------3-/----5--/---7------------------------------|
E|-----------------------------------------------------------------|
Chorus:
e|-----------------------------[-----------------------------------|
B|-----------------------------[-----------------------------------|
G|------------5-------7--------[-----------------------------------|
D|------------5-------7--------[-----------------------------------|
A|------------3-------5--------[-----------------------------------|
E|-----------------------------[-----------------------------------|
with your feet in the wishing ..... ( repeat intro )
Middle:
F / G / A
' and i know what your wishing for....'
Ill let u improv the solos - well that and im lazy so........
and the rest of the song is basicly
last verse: F / G / A
last chorus: F / G

but played the same strum pattern as normal
and then into the intro yet again
Anyhoo anuva brilliant song covered by Gary Moore

| / slide up
| slide down
| h hammer-on
| p pull-off
| ~ vibrato
| + harmonic
| x Mute note
============================================================================




Ваше мнение



Капча