Artist: GARY MOORE
Song: WALKING BY MYSELF
CD: STILL GOT THE BLUES
Tabbed by: Peter Rodegast ([email protected])

main riff
G|---------------|---------------|
D|---------------|---------------|
A|-----5-----5-7-|-----rest------|
E|--7-----7------|---------------|

riff2
G|---------------|---------------|
D|---------------|---------------|
A|---------------|-----7--7------|
E|--5--7--5--3---|---------------|

verse x3
G|---------------| |---------------|
D|o-------------o| |---------------|
A|o-------------o| |---------------|
E|--0--0--0--0---| |--0--4--5--6---|

G|---------------|---------------|
D|---------------|---------------|
A|---------------|---------------|
E|--5--5--5--5---|--7--7--7--7---|

G|---------------|------7--------|
D|-----6--7--8---|--9-------9----|
A|--7------------|---------------|
E|---------------|---------------|

outro x3
G|---------------| |---------------|
D|o-------------o| |---------------|
A|o-------------o| |---------------|
E|--0--0--0--0---| |--0--4--5--6---|
x2
G|---------------|---------------|
D|o--------------|--------------o|
A|o--------------|--------------o|
E|--5--5--5--5---|--7--7--7--7---|

G|---------------|---------------|
D|---------------|---------------|
A|---------------|-----rest------|
E|--5--5--5--5---|---------------|

G|---------------|------7--------|
D|-----6--7--8---|--9-------9----|
A|--7------------|---------------|
E|---------------|---------------|

main riff(x5)
riff2
verse(x2)
main riff(x3)
riff2
verse(x3)
main riff(x3)
riff2
verse
outro




Ваше мнение



Капча