Transcribed by Johann Klein ([email protected])
b = bend
r = release
h = hammer on
p = pull off
= slide down
======================Keyboard Intro======================
(0:33) slowly release
|
E-----------------------------------------------------|
B------10brb------10--8--8b------10--8--10--10b--8br--|
G-----------------------------------------------------|
D--12--------12--------------12-----------------------|
A-----------------------------------------------------|
E-----------------------------------------------------|
--------------------------------------------------|
|------13--11--11b------11--10--10b------10brb--11b--10b--8b--|
--------------------------------------------------|
|--12---------------12---------------12-----------------------|
--------------------------------------------------|
--------------------------------------------------|
(1:15) slowly release
|
--------------------------------------------------|
|------15--13--15------15brb------16--15--15b--16b--15br--15--|
--------------------------------------------------|
|--14--------------14---------14------------------------------|
--------------------------------------------------|
--------------------------------------------------|
----------------------------------------|
|------13--11--13------10brb------10--8--8b--9b--8--|
----------------------------------------|
|--12--------------12---------12--------------------|
----------------------------------------|
----------------------------------------|

(1:53)
pick scratch
|
------------------------------------------------------|
--------13br--13--11--11--13--15--16--15--13--11--13--|
------------------------------------------------------|
|--------12--12------------------------------------------------|
---------------------------------------------------|
---------------------------------------------------|
----------------------------------|
|----------11b--11--10--10--11--13--13b--13b--|
----------------------------------|
|--12--12-------------------------------------|
----------------------------------|
----------------------------------|
slowly release
|
------------------------------------|
|----------16b--16--15--15--15h16h18--16br--16--|
|--12--12---------------------------------------|
------------------------------------|
------------------------------------|
------------------------------------|
-------------------------|
|--15--13--13b--13--11--13-----------|
-------------------------|
----------------------|
----------------------|
----------------------|

(2:34)
|----------21b--20--18--18--20--22--22b--20br--18--20--|
|--15--15----------------------------------------------|
-------------------------------------------|
-------------------------------------------|
-------------------------------------------|
-------------------------------------------|
|----------18b--18--17--17--18--20--20b--20b--20b--|
|--15--15------------------------------------------|
---------------------------------------|
---------------------------------------|
---------------------------------------|
---------------------------------------|
slowly release
|
|----------23b--23--22--22--23--23br--23--|
|--15--15---------------------------------|
------------------------------|
------------------------------|
------------------------------|
------------------------------|
|----------22b--22--20--20--22--23--23--20b--|
|--16--16------------------------------------|
---------------------------------|
---------------------------------|
---------------------------------|
---------------------------------|
---20b--20--18--18--18--20--22--22b--20--|
|--15--15--15----------------------------------------|
-----------------------------------------|
-----------------------------------------|
-----------------------------------------|
-----------------------------------------|
slowly slide down
|
|--18--17--18--17p15--17--17--|
-------------------|
-------------------|
-------------------|
-------------------|
-------------------|

(3:38)
--------------------------------------------------------------|
|------11--10--10b------10--8--8b------10--8--10--10b--8b--8--6b--8-------|
---------------------------------------------------------6br--|
|--12---------------12-------------12-------------------------------------|
--------------------------------------------------------------|
--------------------------------------------------------------|
----------------------------------------|
|------13--11--11b------11--10--10b------9brb--8br--|
----------------------------------------|
|--12---------------12---------------12-------------|
----------------------------------------|
----------------------------------------|

(4:20)
|--22--18-17--17b------18--17--17b------18--17--17b------18--17--17b--|
-------17---------------17---------------17---------------|
----------------------------------------------------------|
----------------------------------------------------------|
----------------------------------------------------------|
----------------------------------------------------------|
|--15b--13b--11b--11--13b--13t14--11--8b--|
------------------------------|
------------------------------|
------------------------------|
------------------------------|
------------------------------|

(5:04)
-----------------------------------------------------------|
|--8b--8brb--8brb-----------------------------------8b--12b--13brbrbr--|
-------10brbrbr--8brbr--10brbrbr--8brb---------------------|
-----------------------------------------------------------|
-----------------------------------------------------------|
-----------------------------------------------------------|

|--12b--12b--15b--20brb--20brbrb--17b--17b--17b--|
-------------------------------------|
-------------------------------------|
-------------------------------------|
-------------------------------------|
-------------------------------------|




Ваше мнение



Капча