From: [email protected] (Lloyd F Aquino)
Subject: TAB:The Loner by Gary Moore
The Loner by Gary Moore (Wild Frontier disc)
Transcribed (w/errors by Lloyd Aquino)
This a great instrumental. I got lazy at the end and didnt transcribe a
couple of licks, sorry. Hopefully I didn't brutalize this too much.
Oh, I also left out the keyboard chords in the beginning and end(between
the fills). They sound like variations on G, not too tough to fig out.
Hope it works for you. Any corrections or adds would be appreciated.
NOTATION:
---------
Don't strike any notes in () unless noted otherwise.
18>(19)(18)-17>(18)17~--15>(16)15~--12-12-14>(16)~--14>(15)(15)~-*(13)~-11-12h13~---15>(17)-14-12-----------------
-------------------------------------w--------------------12~-------------
--------------------------------------------------------------------------
--------------------------------------------------------------------------
end intro, main theme begins
--------------------------------------------------------------------------
--------------------------------------------------------------------------
--------------------------------------------------------------------------
---5-7-7>(8)-----7>(8)----3-5-5\(7)--------5-3-5-----5~--5-7-7>(8)(7)(7)(off)----------
---------------------------h5--------------------5------------------------
----------------------------w---------------------------------------------
--------------------------------------------------------------------3~----
---8-10-10>(11)~------11~---6-8-8>(9)(7)(6)(11)---------10~----6-8>(10)(7)------------5>(6)(6)(11)---8>(9)(7)-----------------------------------------11-10
-h5p(3)~--h3p(2)h(3)---w-----3p(2)~---------------------------------------
--w--------w------------------w-------------------------------------------
--------------------------------------------------------------------------
--------------------------------------------------------------------------
-----------------------------9-9>(10)(11)
-8----------------------8-11--------------11-10-8----8--------------------
---10---------------------------------------------10----------------------
------10>(11)(11)(14)~-17p15p14-15-15>(16)-15>(16)--
-11h13p11\(10)------------------------------------------------------------
--------------12-14-14>(15)(16)(18)------------17----13-15-17-------------
--------------14>(15)--------------13>(14)(16)(18)-19>(20)-20>(21)
------------------16-18-18>(19)-------------------------------------------
-15h17p15\(14)-15---------------14>(15)(22)~--20>(21)(22)(18)---------17-15---15h17-17>(18)(21)(21)(19)
--------------------------17>(19)(11)
-----|5---5>(6)(6)(6)----------------------------
-----|-------------|--5-7-7>(8)----------------8-5-5~---10>(11)-----------
-----|-------------|-5----------------------------------------------------
-----|-------------|------------------------------------------------------
-----------------------|--------------------------------------------------
--------------8>(9)(11)~------11>(12)~---11-11-11-----11----
-----------------------|-10-12---------10-12---------12--------12-10--12p10
-10>(11)(13)~(13)(13)(13)(13)(12)~---------------------------12-10h(12)h(15)--------
-(sorry, im---|-----------------------------------------------w-----------
---lazy)------|-----------------------------------------------------------
--------------|-----------------------------------------------------------
--------------------------------------------------------------------------
-------------15-18-18>(19)~------------15-18-20>(21)----------------------
--------15-17--------------------15-17------------------------------------
--15-17---------------------15-17-----------------------------------------
--------------------------------------------------------------------------
--------------------------------------------------------------------------




Ваше мнение



Капча