================================================================================
Title : Oh Pretty Woman
Artist : Gary Moore
Album : Still Got The Blues
Transcribed by : Paul Breen 17:49 16/06/98
================================================================================
Legend
------
h = hammer-on
p = pull-off
b = bend
r = bend release
/ = slide up/down
= natural harmonic
[5] = artifical harmonic
~ = vibrato
tr = trill

Repeate X 12
G----------|----------------*|-----1----------|-----1----------|-----
D----------|-----1----------*|-3-3----3---1-2-|-3-3----3-------|-----
A------1-2-|-3-3----3---1-2-*|----------3-----|------------1-2-|-3-3-
E----3-----|----------3-----*|----------------|----------3-----|-----

G|------------|----------------|-----------------|-------------|-----
D|-1----------|-----1----------|-----------------|-------------|-----
A|----3---1-2-|-3-3----3---1-2-|-----------------|-------1--2--|-3-3-
E|------3-----|----------3-----|-3-3-3-3-3-3-3-3-|-3---3-------|-----

G|------------|--------------|-
D|-1----------|--------------|-
A|----3---1-2-|-3--------1-2-|-
E|------3-----|----3---3-----|-

This should take you through the first verse or so, then it just repeats itself.

This is my first attempt at tabbing
all suggestions welcome at.
[email protected]




Ваше мнение



Капча