E------5-7----------------xx-x-xx
A----------5----7---------xx-x-xx
D------------5------------xx-x-xx
g-------------------------xx-x-xx
b-------------------------xx-x-xx
e-------------------------xx-x-xx

E------5-7------------------------------------------xx-x-xx
A----------5----7 5h7p5h7p5h7p5h7p5h7p5h7p5---------xx-x-xx
D------------5--------------------------------------xx-x-xx
g---------------------------------------------------xx-x-xx
b---------------------------------------------------xx-x-xx
e---------------------------------------------------xx-x-xx

this is a great song with a great solo. thesong is about 12 mins long!!
but i am not good enogh to try and make that up so i will leave you with
just the intro




Ваше мнение



Капча