#----------------------------------PLEASE NOTE---------------------------------#
#This file is the author's own work and represents their interpretation of the #
#song. You may only use this file for private study, scholarship, or research. #
#------------------------------------------------------------------------------#
#
Date: Thu, 16 Oct 1997 10:06:54 -0700
From: Alice Franceschini
To: [email protected]
Subject: CRD: You don't have to paint me a picture by Gary Lewis
Album: Legendary Masters Series
Written by: RussellGarrettTillison
You Don't Have To Paint Me A Picture Gary Lewis and the Playboys
G D G G D G
You don't have to paint me a picture The hand writing's on the wall
G D C
It's very plain to see that you don't love me
G D G
No you never loved me at all
G D G G D G
You've been out with other fellows You think that I don't know
G C G C D G
But you don't have to pin a rose on me 'cause I knew it long ago
C D G Em
I have tried to make excuses for the things you do
C D G
I've tried to be fair in every way
C D G Em
It's no use pretending that you haven't been untrue
C D
It's over now so I'll be on my way (2. add a Hey, hey)
G D G G D G
I don't need a fortune teller I don't need a crystal ball
G D C
It's very plain to see that you don't love me
G D G
No you never loved me at all
Intro
-------------------------------------------------------|
-------------------------------------------------------|
----0-0-0-2-2-4-4-----0-0-0-2-2-4-4------0-0-0-2-0-2---|
-0-----------------0------------------0----------------|
-------------------------------------------------------|
-------------------------------------------------------|
-0-------------------------------|
-----3--0------------------------|
---------------0-0-0-2--2--0-----|
---------------------------------|
---------------------------------|
---------------------------------|




Ваше мнение



Капча