-------------------------------------------------------------------------------
Mad World - Gary Jules
-------------------------------------------------------------------------------
Tabbed by:Sills
Email:[email protected]
Tuning:Standard E

(Rythmn)
e|---------------------------------------------------------------------------|
B|---------------------------------------------------------------------------|
G|----------------------------------6-----6------6------6--------------------|
D|----7------7-------7--------7--7-----7-----7------7------------------------|
A|-9-----9-------9-------9---------------------------------------------------|
E|---------------------------------------------------------------------------|

(solo-ish part)
e|---------------------------------------------------------------------------|
B|---------------------------------------------------------------------------|
G|-----------------------9---------------------------------------------------|
D|------------------9h8--8---------------------------------------------------|
A|-10----10h9--7h9----------------------------------------------------------|
E|----9----------------------------------------------------------------------|
(verses)
e|---------------------------------------------------------------------------|
B|---------------------------------------------------------------------------|
G|-----------------------------6-----6-----6-----6--6-----6-----6-----6------|
D|----7-----7-----7-----7---7-----7-----7-----7--------4-----4-----4-----4---|
A|-9-----9-----9-----9-------------------------------------------------------|
E|---------------------------------------------------------------------------|
e|---------------------------------------------------------------------------|
B|---------------------------------------------------------------------------|
G|----7-----7-----7----------------------------------------------------------|
D|-4-----4-----4-----4-------------------------------------------------------|
A|---------------------------------------------------------------------------|
E|---------------------------------------------------------------------------|
(chorus)
e|---------------------------------------------------------------------------|
B|---------------------------------------------------------------------------|
G|------------------8--8--8--8-----------------------------------------------|
D|-7---7---7---7----9--9--9--9-----------------------------------------------|
A|-9---9---9---9-------------------------------------------------------------|
E|---------------------------------------------------------------------------|
| / slide up
| slide down
| h hammer-on
| p pull-off
| ~ vibrato
| + harmonic
| x Mute note
===============================================================================




Ваше мнение



Капча