WOLVES - Garth Brooks#---------------------PLEASE NOTE-----------------------#
This file is the author's own work and represents their
interpretation of the song. You may only use this file
for private study, scholarship, or research.
#--------------------------------------------------------#
Written by:
Transcribed by: [email protected]
Uploaded by: [email protected]
This is a great song by Garth, look for the time (tabs) in the song they
will help you to find your place on the CD. there is another electric
guitar in here putting down a few riffs but I have not included it. I
tried to get what Garth is playing only. It is not perfect, but it is very
close I think. If you have any corrections please send to.
[email protected]
Transcribed by Rick H. and John F.
Uploaded by [email protected]
Wolves:Garth Brookes
D D/F# G Asus
E|---------0---------------------0----------------------------------------|
B|-------3---3-------0-----0-3--------------------------------------------|
G|-----2---------2-------0------------------------------------------------|
D|---0---------0---0---0-------2---2--------------------------------------|
A|---------------------------0--------------------------------------------|
E|-----------2-------3----------------------------------------------------|
D D/F# G
E|---------0-----------------3--------------------------------------------|
B|-------3---3-------0-----0----------------------------------------------|
G|-----2---------2-------0------------------------------------------------|
D|---0---------0---0---0--------------------------------------------------|
A|------------------------------------------------------------------------|
E|-----------2-------3-------3--------------------------------------------|
D D/F# G Asus
January's always bitter, but lord this one beats all
E|---------2----------------------------------------------------------0---|
B|-------3---------3--------0-----0-----------------------------3---------|
G|-----2---------2--------------0-----------------------------------0-----|
D|---0---------0--------------0-----------------------------------2-------|
A|--------------------------------------------------------------0---------|
E|-----------2--------------3---------------------------------------------|
D D/F# G Asus
E|---------2-----------------------0--------------------------------------|
B|-------3---3-------0-----0-3--------------------------------------------|
G|-----2---------2-------0-------0----------------------------------------|
D|---0---------0---0---0-------2------------------------------------------|
A|---------------------------0--------------------------------------------|
E|-----------2-------3----------------------------------------------------|
D D/F# G A D/F# .39
The wind aint quit for weeks now, and the drifts are ten feet tall......
E|---0h2---2-----------------3-----------------------0-------0-----2------|
B|-------3---------3-0-----0-------0-2-----2-3-----3-------2-------3------|
G|-----2---------2-------0-------0-------2-------2-------2-----2-------2--|
D|---0---------0-------0-------0-------2-------2-------2------------------|
A|-----------------------------------0-------0-------0--------------------|
E|-----------2-------3-------3-------------------------------------2------|
G G/A A
I been all night driving hefers closer in (.45 on CD)
E|---3--------3-----------------------------------------------------------|
B|---------0-------------------------3--2------2--3-----------------------|
G|-------0-------0---------------------------2----------------------------|
D|-----0-------0---------------------------2------------------------------|
A|-----------------------------------2--0---------------------------------|
E|---3--------------------------------------------------------------------|
D D
the lower ground, and I spent (.53 on CD)
E|-----3-2-------0-----3----3-h5p3-2------2-------------------------------|
B|-----------3-----3-------3------------3---------------------------------|
G|---2-----2---2-----2---3----h5p3----2-----------------------------------|
D|-2-------------------5-----------0--------------------------------------|
A|-----2-0----------------------------------------------------------------|
E|------------------------------------------------------------------------|
D Asus A7
the morning thinking About the ones the wolves pulled down
E|-------0---0------------------------------------------------------------|
B|---------3-------3-2-----2----------------------------------------------|
G|-----2---------0-------0------------------------------------------------|
D|---0---------2-------2--------------------------------------------------|
A|-----------0-------0----------------------------------------------------|
E|------------------------------------------------------------------------|
1:00 1:05
D D/F# G G
E|---------0-----------------3--------------------------------------------|
B|-------3---3-------0-----0----------------------------------------------|
G|-----2---------2-------0------------------------------------------------|
D|---0---------0---0---0--------------------------------------------------|
A|------------------------------------------------------------------------|
E|-----------2-------3-------3--------------------------------------------|
D D/F# G Asus
Charley Barton and his family stoped today to say
E|---------2-0---------------------0--------------------------------------|
B|-------3-------3---0-----0-3---3----------------------------------------|
G|-----2-----------------0------------------------------------------------|
D|---0---------0---0---0-------2------------------------------------------|
A|---------------------------0--------------------------------------------|
E|-----------2-------3----------------------------------------------------|
good-bye
1:15 D G
E|---2-----2-----------------------0--------------------------------------|
B|-------3---3-----3-0-----0-3---3----------------------------------------|
G|-----2---------2-------0------------------------------------------------|
D|---0---------0-------0-------2------------------------------------------|
A|---------------------------0--------------------------------------------|
E|-----------2-------3----------------------------------------------------|
D G
said the bank was taken over the last few
E|---2---2-----------3-------3--------------------------------------------|
B|-----------------3-------0-------0--------------------------------------|
G|-----2---2-----2-------0-------0----------------------------------------|
D|---0---------0-------0-------0------------------------------------------|
A|------------------------------------------------------------------------|
E|-----------2-------3-------3--------------------------------------------|
A Asus D/F#
(1.28 on cd) years were just to dry......
E|-----------------0-------2----------------------------------------------|
B|-2-----2-3-----3-------2---3--------------------------------------------|
G|-----2-------2-------2---2---2------------------------------------------|
D|---2-------2-------2----------------------------------------------------|
A|-0-------0-------0------------------------------------------------------|
E|-------------------------2----------------------------------------------|
G A A D D
And I promised that I'd visit, when they found a place in town , and I
E|---3--------3------0-------0-------2-------0-------3-----3--5p32-----2--|
B|---------0-------0-------2-------2-----3-------3-------3------3----3----|
G|-------0-------0-------2-------2-----2---2---2---2---3------5p3--2------|
D|-----0-------0-------2-------2-----0---------------5-----------0--------|
A|-------------------0----------------------------------------------------|
E|---3--------------------------------------------------------------------|
D A7
spent a long time thinking, about the ones the wolves pulled down...
E|---2---0---0------------------------------------------------------------|
B|---------3-------2-----2------------------------------------------------|
G|-----2---------0-----0--------------------------------------------------|
D|---0---------2-----2----------------------------------------------------|
A|-----------0-----0------------------------------------------------------|
E|------------------------------------------------------------------------|
D D G A
1;52 Lord please shine a
E|-------0------------------------0----------------3------------0---------|
B|---3----------3-------------3----------3--------chorus--------2---------|
G|-2---2------2----2--------2---2------2---2-------0----strum---2---------|
D|0------------------------------------------------0------------2---------|
A|-------------------------------------------------2------------0---------|
E|-------------------------------------------------3----------------------|
D G D Em A
light of hope On those of us who fall
E|---S-----------------------------S--------------------------------------|
B|-----T-----------------------------T------------------------------------|
G|-------R-----------------------------R----------------------------------|
D|---------U-----------------------------U--------------------------------|
A|-----------M-----------------------------M------------------------------|
E|------------------------------------------------------------------------|
D G A D G D Em D
behind. And when we stumble in the snow Will you help us up
E|---------------3------0------2--------3-------2--0-------------------2--|
B|---S-----------0------2------3--------0-------3--0-------------------3--|
G|-----T---------0------2------2--------0-------2--1-------------------2--|
D|-------R-------0------2------0--------0-------0--2-------------------0--|
A|---------U-----2------0---------------2----------2-------------------0--|
E|-----------M---3----------------------3----------0----------------------|
Asus A
while there's still time
E|--------------------------0---------O-------------------------------------
|
B|---S----------------------3---------2-------------------------------------
|
G|-----T--------------------2---------2-------------------------------------
|
D|-------R------------------2---------2-------------------------------------
|
A|---------U----------------0---------0-------------------------------------
|
E|-----------M--------------0----------------------------------------------|
D D/F# G Asus
(2:51)CD I dont mean to be complaining lord you always seen me
E|--------00h2---------------------0--------------------------------------|
B|-------3-------3---0-----0-3--------------------------------------------|
G|-----2-------2---2-----0-------0----------------------------------------|
D|---0-----------------0-------2------------------------------------------|
A|---------------------------0--------------------------------------------|
E|-----------2-------3----------------------------------------------------|
D D/F# G Asus
thru
E|--------00h2---------------------0--------------------------------------|
B|-------3-------3---0-----0-3--------------------------------------------|
G|-----2-------2---2-----0-------0----------------------------------------|
D|---0-----------------0-------2------------------------------------------|
A|---------------------------0--------------------------------------------|
E|-----------2-------3----------------------------------------------------|
D G G A Asus A D/F#
(3:04 onCD)and I know you got your reasons for every thing you do....
E|---0h2---2-2-------3-------3-----------------------0-------0---2--------|
B|-------3---------3-------0-------0-2-----2-3-----3-------2-----3--------|
G|-----2---------2-------0-------0-------2-------2-------2-----2---2------|
D|---0---------0-------0-------0-------2-------2-------2------------------|
A|-----------------------------------0-------0-------0--------------------|
E|-----------2-------3-------3-----------------------------------2--------|
(3:15 on Cd)
G G/A A
But tonight outside my window there's a lonesome mornful sound
E|---3--------3-------------------------0---------0-----------------------|
B|---------0-----------------------------------2--------2-----------------|
G|-------0-------0-------------------0h2-----2--------2-------------------|
D|-----0-------0---------------------------2--------2---------------------|
A|-----------------------------------2--0---------------------------------|
E|---3--------------------------------------------------------------------|
Bm ()optional note****
(3:23 on CD) and I just cant keep from thinking about
E|-----------2-------3-----3-5p3-2-----------0h2--0---0-------------------|
B|---3-----3-----3-------3---------3-----3-------3--3-------3-2-----2-----|
G|-------4-----4-------3-----5p3--2----2---2----2---------0-------0-------|
D|-----4-----------4-5------(2)--0---0------------------2-------2---------|
A|---2-------0----------------------------------------0-------0-----------|
E|------------------------------------------------------------------------|
the ones the wolves pulled down.Oh lord keep me from being the one the
(strum this part) wolves pulled down.
( D / / / G / / / D /// / A7 )
E|---2--------3------2--------0-------------------------------------------|
B|---3-s------0------3--------2-------------------------------------------|
G|---2--t-----0------2--------0-------------------------------------------|
D|---0---r----0------0--------2-------------------------------------------|
A|---0----u---2------0--------0-------------------------------------------|
E|---------m--3-----------------------------------------------------------|
D G G/A D/F#
3:52
E|------0---------------------0h2-----------------------------------------|
B|----3---3-----0-----0-3--5--3-------------------------------------------|
G|--2--------2------0------0--2-------------------------------------------|
D|0---------0-0---0--------x--0-------------------------------------------|
A|----------------------2--4--0-------------------------------------------|
E|--------2-----3-------------2---END-------------------------------------|
---------------------------------------------------------------------------
Chords: I think this is all of the chords used in this song.you have to
watch the G chords there are 4 different ones and I have tried to
let you know where they are.
A XO222O Em O221OO
Asus XO2230 G 3XXXOX or G 3XXXX3
A7 X02O2O G/A X2XX3X
D X0O232 (chorus G) 32OOO3
D/F# 2OO232 Bm x24432




Ваше мнение



Капча