Auther/Artist:Garth Brooks
Title:Thunder Rolls

Dm Dm
4/4
Gtr I
S S S S S S S S S S S S S S S S S S S S S S S S S S S S S S S S
|-------------------------------------|-------------------------------------
|-----3----3------3-----3----1------1-|-----3----3------3-----3----1------1-
|---2---2-----2-----2-----2-----2-----|---2---2-----2-----2-----2-----2-----
|-0-------------0-----0-----------0---|-0-------------0-----0-----------0---
|-------------------------------------|-------------------------------------
|-------------------------------------|------------------------------------- Gtr II
E S S +S E S S S S S +S S E E S S +S E S S S S S +S S E
|-------------0-----------------------|-------------0------------------------
|-------6-(6)-------5h6---5-(5)h6-----|-------6-(6)-------5-6---5-(5)h6------
|-----7-----------7-----7---------7---|-----7-----------7-----7---------7----
|-0-----------------------------------|-0------------------------------------
|-------------------------------------|--------------------------------------
|-------------------------------------|--------------------------------------
Dm Dm
S S S S S S S S S S S S S S S S S S S S S S S S S S S S S S S S
|-------------------------------------|-------------------------------------|
|-----3----3------3-----3----1------1-|-----3----3------3-----3----1------1-|
|---2---2-----2-----2-----2-----2-----|---2---2-----2-----2-----2-----2-----|
|-0-------------0-----0-----------0---|-0-------------0-----0-----------0---|
|-------------------------------------|-------------------------------------|
|-------------------------------------|-------------------------------------|
|
| E S S +S E S S S S S +S S E E S S +S E S S S S S +S S E
|-------------0-----------------------|-------------0-----------------------|
|-------6-(6)-------5h6---5-(5)h6-----|-------6-(6)-------5h6---5-(5)h6-----|
|-----7-----------7-----7---------7---|-----7-----------7-----7---------7---|
|-0-----------------------------------|-0-----------------------------------|
|-------------------------------------|-------------------------------------|
|-------------------------------------|-------------------------------------|
Verse 1
Dm Bb
S S S S S S S S S S S S S S E E S S S S S S S S S S S S S S
|---------------------------------|---------------------------------|
|-----3---3-----3-----3---3-------|---3---3-----3-----3----3------3-|
|---2---2---2-----2-----2---2-----|-----3---3-----3-----3-----3-----|
|-0-----------0-----0---------0---|-3---------3-----3-----------3---|
|---------------------------------|---------------------------------|
|---------------------------------|---------------------------------|
|
| S S S S S S S S S S S S S S S S E S S S S S S S E S +S S S S
|---------------------------5-----|---------------------------------|
|-----6---6-----------6---6-------|---6---6-------6h8---6-(6)-------|
|---7---7---7---7---7---7-------7-|-----7---7---7-------------7---7-|
|-0-----------0---0-----------0---|-----------8-----------------8---|
|---------------------------------|---------------------------------|
|---------------------------------|-6-------------------------------|
A A
S S S S S S S S S S S S S S S S S S S S S S S S S S S S S S S S
|---------------------------------|---------------------------------|
|---2-----2---------2-----2-------|---2-----2-----------3---3-----3-|
|-----2-----2---2-----2-----2---2-|-----2-----2---2---2---2---2-----|
|-------------2---------------2---|-------------2---0-----------0---|
|-0-----0---------0-----0---------|-0-----0-------------------------|
|---------------------------------|---------------------------------|
|
| E S S S S S S E S S S S S S E S S S S S S S S S S S S S S
|---------------------------------|-----------------------0-------5-|
|-----5---------5-----5---------5-|-------5-------------6-------6---|
|-------6---6-----------6---6-----|-----6-----6---5---7-------7-----|
|-----7-------7-------7-------7---|-------------7---0-------0-------|
|---------7---------------7-------|---------7-----------------------|
|-5---------------5---------------|-5-------------------------------|
Dm Bb
S S S S S S S S S S S S S S E E S S S S S S S S S S S S S S
|---------------------------------|---------------------------------|
|-----3---3-----3-----3---3-------|---3---3-----3-----3----3------3-|
|---2---2---2-----2-----2---2-----|-----3---3-----3-----3-----3-----|
|-0-----------0-----0---------0---|-3---------3-----3-----------3---|
|---------------------------------|---------------------------------|
|---------------------------------|---------------------------------|
|
| S S S S S S S S S S S S S S S S E S S S S S S S E S +S S S S
|---------------------------5-----|---------------------------------|
|-----6---6-----------6---6-------|---6---6-------6h8---6-(6)-------|
|---7---7---7---7---7---7-------7-|-----7---7---7-------------7---7-|
|-0-----------0---0-----------0---|-----------8-----------------8---|
|---------------------------------|---------------------------------|
|---------------------------------|-6-------------------------------|
A A
2/4
S S S S S S S S S S S S S S S S S S S S S S S S
|---------------------------------|-----------------|
|---2-----2---------2-----2-------|---2-----2-------|
|-----2-----2---2-----2-----2---2-|-----2-----2---2-|
|-------------2---------------2---|-------------2---|
|-0-----0---------0-----0---------|-0-----0---------|
|---------------------------------|-----------------|
|
| E S S S S S S E S S S S S S E S S S S S S
|---------------------------------|-----------------|
|-----5---------5-----5---------5-|-------5---------|
|-------6---6-----------6---6-----|-----6-----6---5-|
|-----7-------7-------7-------7---|-------------7---|
|---------7---------------7-------|---------7-------|
|-5---------------5---------------|-5---------------|
Dm C9 G/B
4/4
S S S S S S S S S S S S S S S S S S S S S S S S S S S S S S S S
|-------------------------------------|------------------------------------|
|-----3----3------3-----3----3------3-|-----3----3------3-----3-------3----|
|---2---2-----2-------2---2-----2-----|---0---0-----0-------0---0---0---0--|
|-0-------------0---0-------------0---|------------------------------------|
|-------------------------------------|-3-------------3---3-------2--------|
|-------------------------------------|------------------------------------|
|
| E S S +S E S S S S S +S S S S E S S +S E S S S E E S S
|-------------0-----------------5---5-|-------------0-----0----------------|
|-------6-(6)-------5h6---------------|-------3-(3)-----3---3-----------3--|
|-----7-----------7-------7-(7)-------|-----0-----------------0-------0----|
|-0---------------------0---------0---|------------------------------------|
|-------------------------------------|-3-------------------------2--------|
|-------------------------------------|------------------------------------|
A Asus2A Dm
S S S S S S E H S S S S S S S S S S S S S S E
|------------------0----|-------------------------------------|
|-----2-------3--3-2----|-----3----3------3-----3----3--------|
|---2---2-----2--2-2----|---2---2-----2-----2-----2-----2-----|
|-------------2--2-2----|-0-------------0-----0-----------0---|
|-0--------0--0--0-0----|-------------------------------------|
|-----------------------|-------------------------------------|
|
| E E +S E. H E S S +S E S S S S S +S S E
|------------------0----|-------------0-----------------------|
|-----2---(2)-3----2----|-------6-(6)-------5h6---5-(5)h6-----|
|-----2---(2)-2----2----|-----7-----------7-----7---------7---|
|-----2---(2)-2----2----|-0-----------------------------------|
|-0-----------0----0----|-------------------------------------|
|-----------------------|-------------------------------------|
|
| Gtr III
| W H Q E. S
|-----------------------|-------------------------------------|
|-----------------------|-------------------------------------|
|-----------------------|-------------------------------------|
|-----------------------|----------------------------5s=====7-|
|-----------------------|-------------------------------------|
|-----------------------|-------------------------------------|
Verse 2
Dm Dm
E S S S S S S S S S S S S S S S S S S S S S S S S S S S S E
|-------------------------------------||-------------------------------------
|---3----3------3-------3----3------3-||---------3---3-----3-----3---3-------
|-----3-----3------3------3-----3-----||------2----2---2-----2-----2---2-----
|-3-----------3-------3-----------3---||--0--------------0-----0---------0---
|-------------------------------------||-------------------------------------
|-------------------------------------||-------------------------------------
E S S +S E S S S S S +S S E S S S S S S S S S S S S S S S S
|-----------0-------------------------||-------------------------------5-----
------6-(6)--------5--6---5-(5)h6-----||---------6---6-----------6---6-------
|---7-----------7-------7---------7---||------7----7---7---7---7---7-------7-
|-0-----------------------------------||--0--------------0---0-----------0---
|-------------------------------------||-------------------------------------
|-------------------------------------||-------------------------------------
H +Q +Q +S E. Q H
|-------------------------------------||-------------------------------------
|-------------------------------------||-------------------------------------
|-7---------------(7)-------(7)-------||-(7)--------------------------------
|-7---------------(7)-------(7)-------||-(7)--------------------------------
|-------------------------------------||-------------------------------------
|-------------------------------------||-------------------------------------
Bb A
E S S S S S S S S S S S S S S S S S S S S S S S S S S S S S S
|---------------------------------|---------------------------------|
|---3---3-----3-----3----3------3-|---2-----2---------2-----2-------|
|-----3---3-----3-----3-----3-----|-----2-----2---2-----2-----2---2-|
|-3---------3-----3-----------3---|-------------2---------------2---|
|---------------------------------|-0-----0---------0-----0---------|
|---------------------------------|---------------------------------|
|
| E S S S S S S S E S +S S S S E S S S S S S E S S S S S S
|---------------------------------|---------------------------------|
|---6---6-------6h8---6-(6)-------|-----5---------5-----5---------5-|
|-----7---7---7-------------7---7-|-------6---6-----------6---6-----|
|-----------8-----------------8---|-----7-------7-------7-------7---|
|---------------------------------|---------7---------------7-------|
|-6-------------------------------|-5---------------5---------------|
|
| W W
|---------------------------------|---------------------------------|
|---------------------------------|---------------------------------|
|---------------------------------|---------------------------------|
|---------------------------------|---------------------------------|
|---------------------------------|---------------------------------|
|---------------------------------|---------------------------------|
A Dm
S S S S S S S S S S S S S S S S S S S S S S S S S S S S S S E
|------------------------------------|-------------------------------------|
|---2-----2--------------3---3-----3-|------3----3------3-----3---3--------|
|-----2-----2---2------2---2---2-----|---2----2-----2-----2-----2---2------|
|-------------2------0-----------0---|-0--------------0-----0---------0----|
|-0-----0----------------------------|-------------------------------------|
|------------------------------------|-------------------------------------|
|
| E S S S S S S S S S S S S S S S S S S S S S S S S S S S S S S
|--------------------------0-------5-|------------------------------5------|
|-------5----------------6-------6---|------6----6------------6---6--------|
|-----6-----6---5------7-------7-----|---7----7-----7---7---7---7-------7--|
|-------------7------0-------0-------|-0--------------0---0-----------0----|
|---------7--------------------------|-------------------------------------|
|-5----------------------------------|-------------------------------------|
|
| ~~~
| H a Q. E S E. +H.
|------------------------------------|-------------------------------------|
|------------------------------------|-------------------------------------|
|-----------------9h10s==========9---|-5s7------(7)------------------------|
|------------------------------------|-------------------------------------|
|------------------------------------|-------------------------------------|
|------------------------------------|-------------------------------------|
Bb A
E S S S S S S S S S S S S S S S S S S S S S S S S S S S S S S
|-----------------------------------|---------------------------------|
|-----3---3-----3-----3----3------3-|---2-----2---------2-----2-------|
|-------3---3-----3-----3-----3-----|-----2-----2---2-----2-----2---2-|
|--3----------3-----3-----------3---|-------------2---------------2---|
|-----------------------------------|-0-----0---------0-----0---------|
|-----------------------------------|---------------------------------|
|
| E S S S S S S S E S +S S S S E S S S S S S E S S S S S S
|-----------------------------------|---------------------------------|
|-----6---6-------6h8---6-(6)-------|-----5---------5-----5---------5-|
|-------7---7---7-------------7---7-|-------6---6-----------6---6-----|
|-------------8-----------------8---|-----7-------7-------7-------7---|
|-----------------------------------|---------7---------------7-------|
|--6--------------------------------|-5---------------5---------------|
|
| ~~~
| +W W
|-----------------------------------|---------------------------------|
|-----------------------------------|---------------------------------|
|-(7)-------------------------------|---------------------------------|
|-----------------------------------|---------------------------------|
|-----------------------------------|---------------------------------|
|-----------------------------------|---------------------------------|
(A) D
2/4 4/4
Gtr IV
W W
|
/
S S S S S S S S S S S S S S S S S S S S S S S S
|-----------------|-------------------------------------|
|---2-----2-------|-----3----3------3-----3----3------3-|
|-----2-----2---2-|---2---2-----2-------2---2-----2-----|
|-------------2---|-0-------------0---0-------------0---|
|-0-----0---------|-------------------------------------|
|-----------------|-------------------------------------|
|
| E S S S S S S E S S +S E S S S S S +S S S S
|-----------------|-------------0-----------------5---5-|
|-------5---------|-------6-(6)-------5h6---------------|
|-----6-----6---5-|-----7-----------7-------7-(7)-------|
|-------------7---|-0---------------------0---------0---|
|---------7-------|-------------------------------------|
|-5---------------|-------------------------------------|
|
| W Q E S S H
|-----------------|-------------------------------------|
|-----------------|-------------------------------------|
|-----------------|-------------------7s================|
|-----------------|---------------5s7-------------------|
|-----------------|-------------------------------------|
|-----------------|-------------------------------------|
C C B
H Q Q
| | |
/ / /
S S S S S S S S S S S S S S S S
|-----------------------------------|
|-----3----3------3-----3-------3---|
|---0---0-----0-------0---0---0---0-|
|-----------------------------------|
|-3-------------3---3-------2-------|
|-----------------------------------|
|
| E S S +S E S S S E E S S
|-------------0-----0---------------|
|-------3-(3)-----3---3-----------3-|
|-----0-----------------0-------0---|
|-----------------------------------|
|-3-------------------------2-------|
|-----------------------------------|
|
| H H
|-----------------------------------|
|-----------------------------------|
|-5---------------------------------|
|-5---------------------------------|
|-----------------------------------|
|-----------------------------------|
Chorus
A D5 C5 D5 Bb5 C5
W E e +S e. Q +Q H H
| | | | | | | |
/ / / / / / / /
S S S S S S E H E E +S E. H E S S S S S S E S S S S S S
|------------------0----||-------------------|-----------------------------|
|-----2-------3--3-2----||---6-(6)-5--6------|---3---3---------------------|
|---2---2-----2--2-2----||---7-(7)-5--7------|-----3---3---3---5---5-----5-|
|-------------2--2-2----||---7-(7)-5--7------|-----------3-------5---5-----|
|-0--------0--0--0-0----||---5-(5)-3--5------|-1-------------3---------3---|
|-----------------------||-------------------|-----------------------------|
|
| E E +S E. H E E +S E. H E S S S S S S E S S S S S S
|------------------0----||-------------------|-----------------------------|
|-----2---(2)-3----2----||---6-(6)-5--6------|---3---3---------------------|
|-----2---(2)-2----2----||---7-(7)-5--7------|-----3---3---3---5---5-----5-|
|-----2---(2)-2----2----||---7-(7)-5--7------|-----------3-------5---5-----|
|-0-----------0----0----||---5-(5)-3--5------|-1-------------3---------3---|
|-----------------------||-------------------|-----------------------------|
|
| ~
| W W W
|-----------------------||-------------------|-----------------------------|
|-----------------------||-------------------|-----------------------------|
|-----------------------||-------------------|-----------------------------|
|-7---------------------||-------------------|-----------------------------|
|-----------------------||-------------------|-----------------------------|
|-----------------------||-------------------|-----------------------------|
D5 C5 D5 Bb5 C5
Gtr IV
E e +S e. H H H
| | | | | |
/ / / / / /
Gtrs I, II
E E +S E. H E S S S S S S E S S S S S S
|-----------------|-----------------------------|
|---6-(6)-5--6----|---3---3---------------------|
|---7-(7)-5--7----|-----3---3---3---5---5-----5-|
|---7-(7)-5--7----|-----------3-------5---5-----|
|---5-(5)-3--5----|-1-------------3---------3---|
|-----------------|-----------------------------|
A5 Bb5 C5
W H H
| | |
/ / /
E E +S E. H E S S S S S S E S S S S S S
|-------------------------------|-----------------------------|
|-------2--(2)-----3------2-----|---3---3---------------------|
|-------2--(2)-----2------2-----|-----3---3---3---5---5-----5-|
|-------2--(2)-----2------2-----|-----------3-------5---5-----|
|-0-----0--(0)-----0------0-----|-1-------------3---------3---|
|-------------------------------|-----------------------------|
|
| Gtr III
| ~~~
| E a E +S a E. a H W
|-------------------------------|-----------------------------|
|--------------12s14------------|-----------------------------|
|---12s14-(14)--------12s14----|-----------------------------|
|-------------------------------|-----------------------------|
|-------------------------------|-----------------------------|
|-------------------------------|-----------------------------|
D5 C5 D5 Bb5 C D C
Gtr IV
E e +S e. H Q. S S H
| | | | | | | |
/ / / / / / / /
Gtrs I, II
E E +S E. H S S S S S S S S H
|-----------------|-----------------------|
|---6-(6)-5--6----|------3---3-------5----|
|---7-(7)-5--7----|--------3---3---3-5----|
|---7-(7)-5--7----|----3---------3---5----|
|---5-(5)-3--5----|-1----------------3----|
|-----------------|-----------------------|
Dm Dm
Gtr I
S S S S S S S S S S S S S S S S S S S S S S S S S S S S S S S S
|-------------------------------------|-------------------------------------|
|-----3----3------3-----3----1------1-|-----3----3------3-----3----1------1-|
|---2---2-----2-----2-----2-----2-----|---2---2-----2-----2-----2-----2-----|
|-0-------------0-----0-----------0---|-0-------------0-----0-----------0---|
|-------------------------------------|-------------------------------------|
|-------------------------------------|-------------------------------------|
|
| Gtr II
| E S S +S E S S S S S +S S E E S S +S E S S S S S +S S E
|-------------0-----------------------|-------------0-----------------------|
|-------6-(6)-------5h6---5-(5)h6-----|-------6-(6)-------5-6---5-(5)h6-----|
|-----7-----------7-----7---------7---|-----7-----------7-----7---------7---|
|-0-----------------------------------|-0-----------------------------------|
|-------------------------------------|-------------------------------------|
|-------------------------------------|-------------------------------------|
|
| Gtr III
| ~
| W W
|-------------------------------------|-8-----------------------------------|
|-------------------------------------|-------------------------------------|
|-------------------------------------|-------------------------------------|
|-------------------------------------|-------------------------------------|
|-------------------------------------|-------------------------------------|
|-------------------------------------|-------------------------------------|
Dm
S S S S S S S S S S S S S S S S
|---------------------------------------|
|-------3----3------3-----3----1------1-|
|-----2---2-----2-----2-----2-----2-----|
|--0--------------0-----0-----------0---|
|---------------------------------------|
|---------------------------------------|
|
| E S S +S E S S S S S +S S E
|---------------0-----------------------|
|---------6-(6)-------5h6---5-(5)h6-----|
|-------7-----------7-----7---------7---|
|--0------------------------------------|
|---------------------------------------|
|---------------------------------------|
|
| ~~~
| +H E E E E
|-(8)-----------------8-----------------|
|---------------------------------------|
|-----------------------------10s===9---|
|---------------------------------------|
|---------------------------------------|
|---------------------------------------|
Dm
S S S S S S S S S S S S S S S S
|-----------------------------------------||
|-----3-----3------3-------3----1-------1-||
|---2----2-----2------2------2------2-----||
|-0--------------0-------0------------0---||
|-----------------------------------------||
|-----------------------------------------||
|
| E S S +S E S S S S S +S S E
|--------------0--------------------------||
|--------6-(6)--------5h=6---5-(5)h=6-----||
|-----7------------7-------7----------7---||
|-0---------------------------------------||
|-----------------------------------------||
|-----------------------------------------||
|
| E Q. +Q Q
|-----------------------------------------||
|-----------------------------------------||
|-5s==7--------------(7)-------(7)-------||
|-----------------------------------------||
|-----------------------------------------||
|-----------------------------------------||
Verse 3
Dm Bb
S S S S S S S S S S S S S S E E S S S S S S S S S S S S S S
|---------------------------------|---------------------------------|
|-----3---3-----3-----3---3-------|---3---3-----3-----3----3------3-|
|---2---2---2-----2-----2---2-----|-----3---3-----3-----3-----3-----|
|-0-----------0-----0---------0---|-3---------3-----3-----------3---|
|---------------------------------|---------------------------------|
|---------------------------------|---------------------------------|
|
| S S S S S S S S S S S S S S S S E S S S S S S S E S +S S S S
|---------------------------5-----|---------------------------------|
|-----6---6-----------6---6-------|---6---6-------6h8---6-(6)-------|
|---7---7---7---7---7---7-------7-|-----7---7---7-------------7---7-|
|-0-----------0---0-----------0---|-----------8-----------------8---|
|---------------------------------|---------------------------------|
|---------------------------------|-6-------------------------------|
|
| W W
|---------------------------------|---------------------------------|
|---------------------------------|---------------------------------|
|---------------------------------|---------------------------------|
|---------------------------------|---------------------------------|
|---------------------------------|---------------------------------|
|---------------------------------|---------------------------------|
A A
S S S S S S S S S S S S S S S S S S S S S S S S S S S S S S S S
|---------------------------------|--------------------------------------|
|---2-----2---------2-----2-------|---2-----2------------3-----3-------3-|
|-----2-----2---2-----2-----2---2-|-----2-----2---2----2---2-------2-----|
|-------------2---------------2---|-------------2----0---------------0---|
|-0-----0---------0-----0---------|-0-----0------------------------------|
|---------------------------------|--------------------------------------|
|
| E S S S S S S E S S S S S S E S S S S S S S S S S S S S S
|---------------------------------|------------------------0-----------5-|
|-----5---------5-----5---------5-|-------5--------------6-----------6---|
|-------6---6-----------6---6-----|-----6-----6---5----7-----------7-----|
|-----7-------7-------7-------7---|-------------7----0---------0---------|
|---------7---------------7-------|---------7----------------------------|
|-5---------------5---------------|-5------------------------------------|
|
| W H Q +Q
|---------------------------------|--------------------------------------|
|---------------------------------|-----------------10-------(10)-------|
|---------------------------------|--------------------------------------|
|---------------------------------|--------------------------------------|
|---------------------------------|--------------------------------------|
|---------------------------------|--------------------------------------|
Dm Bb
S S S S S S S S S S S S S S E E S S S S S S S S S S S S S S
|---------------------------------|---------------------------------|
|-----3---3-----3-----3---3-------|---3---3-----3-----3----3------3-|
|---2---2---2-----2-----2---2-----|-----3---3-----3-----3-----3-----|
|-0-----------0-----0---------0---|-3---------3-----3-----------3---|
|---------------------------------|---------------------------------|
|---------------------------------|---------------------------------|
|
| S S S S S S S S S S S S S S S S E S S S S S S S E S +S S S S
|---------------------------5-----|---------------------------------|
|-----6---6-----------6---6-------|---6---6-------6h8---6-(6)-------|
|---7---7---7---7---7---7-------7-|-----7---7---7-------------7---7-|
|-0-----------0---0-----------0---|-----------8-----------------8---|
|---------------------------------|---------------------------------|
|---------------------------------|-6-------------------------------|
|
| W W
|---------------------------------|---------------------------------|
|-3-------------------------------|---------------------------------|
|---------------------------------|-3-------------------------------|
|---------------------------------|-3-------------------------------|
|---------------------------------|---------------------------------|
|---------------------------------|---------------------------------|
A
S S S S S S S S S S S S S S S S
|----------------------------------|
|---2-----2---------2-----2--------|
|-----2-----2---2-----2-----2---2--|
|-------------2---------------2----|
|-0-----0---------0-----0----------|
|----------------------------------|
|
| E S S S S S S E S S S S S S
|----------------------------------|
|-----5---------5-----5---------5--|
|-------6---6-----------6---6------|
|-----7-------7-------7-------7----|
|---------7---------------7--------|
|-5---------------5----------------|
|
| W
|----------------------------------|
|----------------------------------|
|-2--------------------------------|
|-2--------------------------------|
|----------------------------------|
|----------------------------------|
Dm D
2/4 4/4
Gtr IV
W H Q E E
|
/
S S S S S S S S S S S S S S S S S S S S S S S S
|-------------------|-------------------------------------|
|-----2-----2-------|-----3----3------3-----3----3------3-|
|-------2-----2---2-|---2---2-----2-------2---2-----2-----|
|---------------2---|-0-------------0---0-------------0---|
|--0------0---------|-------------------------------------|
|-------------------|-------------------------------------|
|
| E S S S S S S E S S +S E S S S S S +S S S S
|-------------------|-------------0-----------------5---5-|
|---------5---------|-------6-(6)-------5h6---------------|
|-------6-----6---5-|-----7-----------7-------7-(7)-------|
|---------------7---|-0---------------------0---------0---|
|-----------7-------|-------------------------------------|
|--5----------------|-------------------------------------|
|
| +H W
|-------------------|-------------------------------------|
|-------------------|-------------------------------------|
|-(2)---------------|-7-----------------------------------|
|-(2)---------------|-7-----------------------------------|
|-------------------|-------------------------------------|
|-------------------|-------------------------------------|
C C B A
+H Q Q W
| | | |
/ / / /
S S S S S S S S S S S S S S S S S S S S S S E H
|--------------------------------------|------------------0----|
|------3----3------3-------3-------3---|-----2-------3--3-2----|
|----0---0-----0---------0---0---0---0-|---2---2-----2--2-2----|
|--------------------------------------|-------------2--2-2----|
|--3-------------3-----3-------2-------|-0--------0--0--0-0----|
|--------------------------------------|-----------------------|
|
| E S S +S E S S S E E S S E E +S E. H
|--------------0-------0---------------|------------------0----|
|--------3-(3)-----3-----3-----------3-|-----2---(2)-3----2----|
|------0-------------------0-------0---|-----2---(2)-2----2----|
|--------------------------------------|-----2---(2)-2----2----|
|--3---------------------------2-------|-0-----------0----0----|
|--------------------------------------|-----------------------|
|
| H a Q Q W
|--------------------------------------|-----------------------|
|--------------------------------------|-----------------------|
|--5-----------------4S5-------4-------|-2---------------------|
|--------------------------------------|-----------------------|
|--------------------------------------|-----------------------|
|--------------------------------------|-----------------------|
Chorus
Dm C Dm Dm
Gtr III
~
E E +S E. E. S S S E E E S E S E +Q E
|---------------6----------|---------------------|
|--------------------5------|---------------------|
|---7-(7)-5--7----------7-5-|---7---7---7-(7)----|
|---7-(7)-5--7--------------|---7---7---7-(7)----|
|---------------------------|---------------------|
|---------------------------|---------------------|
|
| Gtr IV
| E E +S E. E. S S S E E E S E S E +Q E
|---------------------------|---------------------|
|---------------------------|---------------------|
|---7-(7)-5--7--------------|---7---7---7-(7)----|
|---7-(7)-5--7--2b4r(2)p0---|---7---7---7-(7)----|
|---5-(5)-3--5------------3-|---5---5---5-(5)----|
|---------------------------|---------------------|
Bb5 C5 C5 D5 C5
Gtrs I, II
E S S S S S S E S S S S S S E E +S E. H
|-----------------------------|------------------------------|
|---3---3---------------------|------6--(6)--5-----6---------|
|-----3---3---3---5---5-----5-|------7--(7)--5-----7---------|
|-----------3-------5---5-----|------7--(7)--5-----7---------|
|-1-------------3---------3---|------5--(5)--3-----5---------|
|-----------------------------|------------------------------|
|
| Gtr III
| W E a E +S S E Q Q
|-----------------------------|---9s10-(10)-12s13-10--(10)--|
|-----------------------------|-------------------10--(10)--|
|-----------------------------|------------------------------|
|-----------------------------|------------------------------|
|-----------------------------|------------------------------|
|-----------------------------|------------------------------|
Bb5 C5 A5
E S S S S S S E S S S S S S E E +S E. H
|-----------------------------|-------------------------------|
|---3---3---------------------|-------2-(2)--3-----2----------|
|-----3---3---3---5---5-----5-|-------2-(2)--2-----2----------|
|-----------3-------5---5-----|-------2-(2)--2-----2----------|
|-1-------------3---------3---|-0-----0-(0)--0-----0----------|
|-----------------------------|-------------------------------|
|
| ~~~
| W E a E S E S Q. E
|-----------------------------|---10s12-----------------------|
|-----------------------------|-------------13s14-------------|
|-----------------------------|-------------------14----(14)-|
|-----------------------------|-------------------------------|
|-----------------------------|-------------------------------|
|-----------------------------|-------------------------------|
Bb5 C5
E S S S S S S E S S S S S S
|-----------------------------|
|---3---3---------------------|
|-----3---3---3---5---5-----5-|
|-----------3-------5---5-----|
|-1-------------3---------3---|
|-----------------------------|
|
| W
|-----------------------------|
|-----------------------------|
|-----------------------------|
|-----------------------------|
|-----------------------------|
|-----------------------------|
D5 C5 D5 Bb5
E E +S E. H S S S S S S S S H
|-----------------------------|----------------------||
|----6--(6)--5-----6----------|-----3---3-------5----||
|----7--(7)--5-----7----------|-------3---3---3-5----||
|----7--(7)--5-----7----------|---3---------3---5----||
|----5--(5)--3-----5----------|-1---------------3----||
|-----------------------------|----------------------||
|
| ~~~
| E E +S E S Q. E W
|---17-(17)-------------------|----------------------||
|-----------17s18-------------|----------------------||
|-----------------19----(19)-|----------------------||
|-----------------------------|----------------------||
|-----------------------------|----------------------||
|-----------------------------|----------------------||
Outro
Dm
Gtr I
S S S S S S S S S S S S S S S S
|-----------------------------------------|
|-----3----3-------3--------3----1------1-|
|---2---2-----2--------2------2-----2-----|
|-0-------------0---------0-----------0---|
|-----------------------------------------|
|-----------------------------------------|
|
| Gtr II
| E S S +S E S S S S S +S S E
|-------------0---------------------------|
|-------6-(6)----------5h=6---5-(5)h6-----|
|-----7------------7--------7---------7---|
|-0---------------------------------------|
|-----------------------------------------|
|-----------------------------------------|
|
| Gtr III
| ~~~~~~~~~~~~~~~~~~~~~~~~
| Q E. S +H
|-----------------10-(10)-----------------|
|-----------------------------------------|
|-----------------------------------------|
|-----------------------------------------|
|-----------------------------------------|
|-----------------------------------------|
Dm
S S S S S S S S S S S S S S S S
|----------------------------------------|
|--------3----3------3-----3----1------1-|
|------2---2-----2-----2-----2-----2-----|
|---0--------------0-----0-----------0---|
|----------------------------------------|
|----------------------------------------|
|
| E S S +S E S S S S S +S S E
|----------------0-----------------------|
|----------6-(6)-------5-6---5-(5)h6-----|
|--------7-----------7-----7---------7---|
|---0------------------------------------|
|----------------------------------------|
|----------------------------------------|
|
|~~~~~~
| +W
|-(10)-----------------------------------|
|----------------------------------------|
|----------------------------------------|
|----------------------------------------|
|----------------------------------------|
|----------------------------------------|
Dm
S S S S S S S S S S S S S S S S
|-----------------------------------------------|
|---------3-----3------3--------3-----1-------1-|
|------2-----2-----2-------2------2-------2-----|
|---0----------------0--------0-------------0---|
|-----------------------------------------------|
|-----------------------------------------------|
|
| E S S +S E S S S S S +S S E
|------------------0----------------------------|
|------------6-(6)---------5h=6---5--(5)h=6-----|
|---------7------------7--------7-----------7---|
|---0-------------------------------------------|
|-----------------------------------------------|
|-----------------------------------------------|
|
| +E Q. +Q +Q
|-(10)------------------------------------------|
|--------10--------------(10)-------(10)-------|
|-----------------------------------------------|
|-----------------------------------------------|
|-----------------------------------------------|
|-----------------------------------------------|
Dm
S S S S S S S S S S S S S S S S
|----------------------------------------|
|------3----3------3-------3----1------1-|
|---2----2-----2------2------2-----2-----|
|-0--------------0-------0-----------0---|
|----------------------------------------|
|----------------------------------------|
|
| E S S +S E S S S S S +S S E
|--------------0-------------8-(8)---5---|
|--------6-(6)--------5h=6---------6-----|
|------7-----------7-------7-------------|
|-0--------------------------------------|
|----------------------------------------|
|----------------------------------------|
|
| ~~~~~~~~~~~
| S E. +Q Q +Q
|----------------------------------------|
|----------------------------------------|
|-5s7------(7)-------(7)-------(7)-------|
|----------------------------------------|
|----------------------------------------|
|----------------------------------------|
Dm Dm
S S S S S S S S S S S S S S S S S S S S S S S S S S S S S S S S
|-----------------------------------------|----------------------------------
|-------3----3--------3-----3----1------1-|-----3----3------3-----3----1-----
|-----2---2-----2-------2-----2-----2-----|---2---2-----2-----2-----2----2---
|--0---------------0------0-----------0---|-0-------------0-----0----------0-
|-----------------------------------------|----------------------------------
|-----------------------------------------|----------------------------------
|
| E S S +S E S S S S S +S S E E S S +S E S S S S S +S S E
|---------------0-------------8-(8)---5---|-------------0-----------8-(8)--5-
|---------6-(6)---------5h6---------6-----|-------6-(6)-------5h6--------6---
|-------7-------------7-----7-------------|-----7-----------7-----7----------
|--0--------------------------------------|-0--------------------------------
|-----------------------------------------|----------------------------------
|-----------------------------------------|----------------------------------
|
| Q E +E H H Q E. S
|-----------------------------------------|----------------------------------
|-----------------------------------------|----------------------------------
|-(7)-------(7)---(7)---------------------|----------------------------------
|-----------------------------------------|----------------------------
|-----------------------------------------|----------------------------------
|-----------------------------------------|----------------------------------
Dm
S S S S S S S S S S S S S S S S
|----------------------------------------|
|------3----3------3-----3------1------1-|
|----2---2-----2-----2-----2-------2-----|
|-0--------------0-----0-------------0---|
|----------------------------------------|
|----------------------------------------|
|
| E S S +S E S S S S S +S S E
|--------------0-----------8---(8)---5---|
|--------6-(6)-------5h6-----------6-----|
|------7-----------7-----7---------------|
|-0--------------------------------------|
|----------------------------------------|
|----------------------------------------|
|
| ~~
| H. a Q
|----------------------------------------|
|----------------------------8-10--------|
|-7--------------------------------------|
|----------------------------------------|
|----------------------------------------|
|----------------------------------------|
Dm
S S S S S S S S S S S S S S S S
|----------------------------------------------------|
|-----------3-----3------3--------3-------1-------1--|
|------2-------2-----2-------2--------2-----2--------|
|---0------------------0--------0---------------0----|
|----------------------------------------------------|
|----------------------------------------------------|
|
| E S S +S E S S S S S +S S E
|--------------------0----------------8--(8)----5----|
|--------------6-(6)---------5h=6-----------6--------|
|-----------7------------7--------7------------------|
|---0------------------------------------------------|
|----------------------------------------------------|
|----------------------------------------------------|
|
| +E a Q. +E. +S S S a S S
|--------8-10--------------(10)-----(10)s=8s5--------|
|-(10)----------------------------------------5s6----|
|-------------------------------------------------7--|
|----------------------------------------------------|
|----------------------------------------------------|
|----------------------------------------------------|
Dm
S S S S S S S S S S S S S S S S
|---------------------------------------|
|-------3----3------3-----3----1------1-|
|-----2---2-----2-----2-----2-----2-----|
|--0--------------0-----0-----------0---|
|---------------------------------------|
|---------------------------------------|
|
| E S S +S E S S S S S +S S E
|---------------0-----------8-(8)---5---|
|---------6-(6)-------5h6---------6-----|
|-------7-----------7-----7-------------|
|--0------------------------------------|
|---------------------------------------|
|---------------------------------------|
|
| ~~~
| +W
|---------------------------------------|
|---------------------------------------|
|-(7)-----------------------------------|
|---------------------------------------|
|---------------------------------------|
|---------------------------------------|
Dm
S S S S S S S S S S S S S S S S
|----------------------------------------|
|-------3----3------3-----3----1-------1-|
|-----2---2-----2-----2-----2------2-----|
|--0--------------0-----0------------0---|
|----------------------------------------|
|----------------------------------------|
|
| E S S +S E S S S S S +S S E
|---------------0-----------8-(8)----5---|
|---------6-(6)-------5h6----------6-----|
|-------7-----------7-----7--------------|
|--0-------------------------------------|
|----------------------------------------|
|----------------------------------------|
|
| H. Q
|----------------------------------------|
|----------------------------------------|
|-(7)-------------------------(7)-------|
|-(7)-------------------------(7)-------|
|----------------------------------------|
|----------------------------------------|
Dm Dm
S S S S S S S S S S S S S S S S S S S S S S S S S S S S S S S S
|-------------------------------------|-------------------------------------|
|-----3----3------3-----3----1------1-|-----3----3------3-----3----1------1-|
|---2---2-----2-----2-----2-----2-----|---2---2-----2-----2-----2-----2-----|
|-0-------------0-----0-----------0---|-0-------------0-----0-----------0---|
|-------------------------------------|-------------------------------------|
|-------------------------------------|-------------------------------------|
|
| E S S +S E S S S S S +S S E E S S +S E S S S S S +S S E
|-------------0-----------8-(8)---5---|-------------0-----------8-(8)---5---|
|-------6-(6)-------5h6---------6-----|-------6-(6)-------5h6---------6-----|
|-----7-----------7-----7-------------|-----7-----------7-----7-------------|
|-0-----------------------------------|-0-----------------------------------|
|-------------------------------------|-------------------------------------|
|-------------------------------------|-------------------------------------|
|
| W W
|-------------------------------------|-------------------------------------|
|-------------------------------------|-------------------------------------|
|-------------------------------------|-------------------------------------|
|-------------------------------------|-------------------------------------|
|-------------------------------------|-------------------------------------|
|-------------------------------------|-------------------------------------|
D
S S S S S S S S S S S S S S S S
|-------------------------------------------*|
|-----3----3-------3--------3-----1-------1-*|
|---2---2-----2--------2------2------2------*|
|-0--------------0--------0-------------0---*|
|-------------------------------------------*|
|-------------------------------------------*|
|
| E S S +S E S S S S S +S S E
|-------------0---------------8--(8)----5---*|
|-------6-(6)----------5h=6----------6------*|
|-----7------------7--------7---------------*|
|-0-----------------------------------------*|
|-------------------------------------------*|
|-------------------------------------------*|
|
| Q E E +Q E E
|---------------13---(13)-------(13)s==10---*|
|-------------------------------------------*|
|-------------------------------------------*|
|-------------------------------------------*|
|-------------------------------------------*|
|-------------------------------------------*|




Ваше мнение



Капча