#----------------------------------PLEASE NOTE---------------------------------#
#This file is the author's own work and represents their interpretation of the #
#song. You may only use this file for private study, scholarship, or research. #
#------------------------------------------------------------------------------#
#
Somewhere Other Than The Night
By : Garth Brooks &
Kent Blazy
This is a great accoustic ballad. It is played moderately slow, and **Capoed at
the 1st fret***. Enjoy
D5 Dsus2 D G/B D(add2)/A
|----------------0-------2--|------------------------|-------------0------2---|
|--------3------------------|-3-------3-----------3--|-------3----------------|
|-----2------2-------2------|------0-----------0-----|----------2------2------|
|--0------------------------|----0----------0--------|----4-------------------|
|---------------------------|-2----------2-----------|-0----------------------|
|---------------------------|------------------------|------------------------|
A7sus4 Bm G D
|-0----------------|-------||------------------------|--------0h2p0-----------|
|-3----------------|-------||------------------------|---------------3--------|
|-0----------------|-------||--------4-----------0---|----2--------------2----|
|-2----------------|-------||-----4----------0-------|-0----------------------|
|-0----------------|-------||--2---------------------|------------------------|
|------------------|-------||------------3-----------|------------------------|
1*Start Lyrics
F#m7 Bm G C/G G D D(add2)/F#
|---------------------------|------------------------|----------2--0----------|
|-----------2---3---------3-|-0------------1--0------|-------3-----------3----|
|-------2--------------4----|-0----------0----0------|----2-----------------0-|
|----2--------------4-------|-0--0---0-2------0------|-0--------------0-------|
|---------------2-----------|------------------------|------------------------|
|-2-------------------------|-3---------------3------|-------------2----------|
2*Lyrics 3*Lyrics ect...
G(add2) Em11 Asus4 A
|-----------------3---------|-------------------5----|----------------5-------|
|-------------0-------------|--------------3---------|-----------3--------2---|
|---------2-----------------|---------0--------------|------------------------|
|-----0---------------------|----4-------------------|-------2----------------|
|---------------------------|------------------------|--0---------------------|
|--3--------------3-------2-|-0----------------------|------------------------|
4* 5*
D D(add2)/F# G D
|-------------2--0----------|--------------3---------|-------2-----------2----|
|---------3------------3----|----------0-----------0-|-3--------3-----------3-|
|-----2-------------------2-|-------0------------0---|-2--2-----------2-------|
|--0----------------0-------|----0------------0------|-0-----------0----------|
|---------------------------|------------------------|------------------------|
|----------------2----------|-3----------------------|------------------------|
6*
A7sus4 A7 A#dim7 Bm D/A G
|---------------------0-----|------------------------|------------------------|
|-----------3--2------------|--3--------3---------3--|-----------0------------|
|--------0--------0---------|--------4------------2--|--------0------------0--|
|-----2---------------------|-----4-----------4------|-----0-----------0------|
|--0------------------1-----|--2-----------0---------|------------------------|
|---------------------------|------------------------|--3-----------3---------|
7* 8*
D Dsus2 A7sus4 A
|----------2----------0-----|----------0--------0----|------------------------|
|----------3-------------3--|-------3--------3-----0-|--2---------------------|
|------2----------2---------|----0--------0----------|--2---------------------|
|--0-----------0------------|------------------------|--2---------------------|
|---------------------------|-0----------------------|--0---------------------|
|---------------------------|------------------------|------------------------|
Somewhere Other than the
Chorus (Strum 1st Part)
%%
G A D D/F# G A
night she needs to hear I love you Somewhere other than night she needs to know
D A/C#
you care She
2nd time to Coda
Bm D(add9)/A E/G# G Em A7sus4
|---------------------------|-------------------------|-----------------------|
|------3--2--3-----3--2---3-|-----3---2--3------------|-----------------------|
|---------------------------|-------------------------|-----------------------|
|---------------------------|-------------------------|-----------------------|
|--2------------0-----------|-------------------------|------------------0----|
|---------------------------|--4-------------3---2--4-|---0---2-----3---------|
wants to know ...ect
D5 Dsus2 D G/B D(add2)/A A7sus4
|--------------0-------2--|-------------------------|----------0----2-|-0-----|
|--------3----------------|--3---------3----------3-|-----3-----------|-3-----|
|----2------2------2------|---------0----------0----|-------2----2----|-0-----|
|-0-----------------------|------0----------0-------|---4-------------|-2-----|
|-------------------------|--2-----------2----------|-0---------------|-0-----|
|-------------------------|-------------------------|-----------------|-------|
9*
Bm G D5 Dsus2 F#m7 Bm
|---------------------------|--------------0----------|-----------------------|
|-------------------------0-|--------3---------3------|---------2--3--------3-|
|----------4----------0-----|-----2-----2----------2--|------2-----------4----|
|------4----------0---------|--0----------------------|----2----------4-------|
|--2------------------------|-------------------------|------------2----------|
|-------------3-------------|-------------------------|-2---------------------|
10*
G D D(add2)/F# G
|---------------------------|----------2---0----------|-----------3-----------|
|--0----------------1---0---|-------3----------3------|---------0----------0--|
|--0-------------0------0---|----2-----------------2--|------0----------0-----|
|--0--0--0---2----------0---|-0-----------------------|----0---------0--------|
|---------------------------|-------------------------|-----------------------|
|--3--------------------3---|--------------2----------|--3--------------------|
11* 12*
D.S %% al Coda
Em A7sus4 A D/F#
|---------------------------|----------0--------0-----|-----------------------|
|--------3---------------2--|-------3-------3------0--|-2-----2-----2-----3---|
|-----0--------------0------|----0-------0------------|-2-----2-----2-----2---|
|-----------2---------------|-------------------------|-2-----2-----2-----0---|
|-----------------2---------|-0-----------------------|-0-----0-----0---------|
|--0-----------0------------|-------------------------|-------------------2---|
Somewhere other than the
Coda: (strum)
D A/C# Bm D(add2)/A E/G# G
night / / / To know she's needed but she needs to be held tight
Em A7sus4 C(add9) G/B A7sus4 D
somewhere other than the night / / / / / / / / / / / / / / /
I'm sorry that the lyrics are not entered under the tab, but since this song
is played so slow, to make it fit, I would have to put about one measure per
line. I hope this works-- I've entered numbers in the TAB (1*,2*,3*,...) that
correspond to the begining of the line in the lyrics.
1* He could see the storm clouds rollin' across the hill
2* He barely beat the rain in from the field
3* And between the back door slammin' she heard him say
4* Damn this rain and damn this wasted day
5* But she'd been waitin' for this day for oh so long
6* She was standin' in the kitchen with nothin' but her apron on
7* And in disbelief he stood and he stared a while
8* When their eyes met they both began to smile
Chorus:
Somewhere other than the night
She needs to hear I love you
Somewhere other than the night
She needs to know you care
She wants to know she's needed
And she needs to be held tight
Somewhere other than the night
9* They spent the day wrapped up in a blanket on the front porch swing
10* He'd come to realize he'd neglected certain things
11* And there are times she feels alone even by his side
12* It was the first time she ever saw him cry
Chorus:
Somewhere other than the night
She needs to hear I love you
Somewhere other than the night
She needs to know you care
She wants to know she's needed
And she needs to be held tight
Somewhere other than the night
To know she's needed
But she needs to be held tight
Somewhere other than the night
Chords: (Some are pretty tricky)
EADGBe
D5---------XX02---|3X
D/F#-------2X02---|3X
E/G#-------4X2400-|
A/C#-------X422---|2X
D/A--------X04232-|
A7---------X02020-|
Asus4------X02235-|
A#dim7-----X12020-|
Em11-------024035-|
C/G--------3X2013-|
Dsus2------XX0230-|
D----------XX0232-|
G/B--------X200---|3X
D(add2)/A--X04230
A7sus4-----X02030-|
Bm---------X24442-|
A----------X01115-| (BAR WITH THE INDEX)
F#m7-------2X2222-| (fingering that works for me-MIRRRR (mid,ind,ring) like a 9th)
G(add9)----3x0203-|
D(add9)/F#-2X0230
Em9--------024030-|
Em---------022000-|
G----------320003-|
E----------022100-|
C(add9)----X32030-|




Ваше мнение



Капча