Garth Brooks
Friends in low places(solo)
Tabbed by Dave McGinn
This is the first solo i worked out by myself and i think i did a pretty good job.
I did this song for my dad because he likes this song.Its not half bad anyway!!!
Any comments or adjustments please email me [email protected]

[email protected]------------|
B|---------------------------------------------------------------------------|
G|---------------------------------------------------14~~--------------------|
D|-/16-16-16-16-16-14-11-9-11-11-9-------------------------------------------|
A|-----------------------------------------11/12~~---------------------------|
E|----------------------------------------------------------5-7/9-12---------|

E|--------------------------------------------------------------------------|
B|--------------------------------------------------------------------------|
G|--------------------------------------------------------------------------|
D|---------------------------------14/16-14---------------------------------|
A|-14/16-14/16-14/16-14-14-12------------16-12-14-16-14~~~------------------|
E|--------------------------------------------------------------------------|

E|--------------------------------------------------------------------------|
B|--------------------------------------------------------------------------|
G|--------------------------------------------------------------------------|
D|-----------------------------------14-------------------------------------|
A|-------------------12~~~----/16-----16p14-12~~~~~~~~----------------------|
E|-16-14-12~~~--------------------------------------------------------------|




Ваше мнение



Капча