Right Down The Line
from the album CITY TO CITY
Gerry Rafferty
Bass guitar
Transcribed by Todd Richard Lyons ([email protected])
This is my own interpretation of the song, and differs slightly
from the original recording.

G||-------------7---------|------------5---------|----------------------|
D||*-----------------7----|-----------------5----|------------7---------|
A||*--5--5----------------|--3--3----------------|-----------------7----|
E||-----------------------|----------------------|--5--5----------------|

----------------------|------------7---------|------------5---------|
------------3---------|-----------------7----|-----------------5----|
-----------------3----|--5--5----------------|--3--3----------------|
--1--1----------------|----------------------|----------------------|

----------------------|----------------------|------------7---------|
------------7---------|------------3---------|-----------------7----|
-----------------7----|-----------------3----|--5--5----------------|
--5--5----------------|--1--1----------------|----------------------|

------------5---------|----------------------|----------------------|
-----------------5----|------------7---------|------------3---------|
--3--3----------------|-----------------7----|-----------------3----|
----------------------|--5--5----------------|--1--1----------------|

------------5---------|----------------------|----------------------|
-----------------5----|------------5---------|----------------------|
--3--3----------------|-----------------5----|----------------------|
----------------------|--3--3----------------|--5--5------3--3------|
2x
----------------------|-----------------------||----------------------|
------------3---------|------------3---------*||--3----2--------------|
----------------------|----------------------*||------------5--5------|
--1--1-----------1----|--1--1-----------1-----||----------------------|

----------------------|----------------------|---------------------|
----------------------|----------------------|---------------------|
--2------2----2-------|----------------------|---------------------|
-----------------5----|--3------3----3--3----|--4------0------4----|


----------------------|----------------------|------------7---------|
----------------------|---------3----3--2----|-----------------7----|
----------------------|----------------------|--5--5----------------|
--5------5----5--3----|--1-------------------|----------------------|

------------7---------|-----------------------|----------------------|
-----------------7----|-----------------------|----------------------|
--5--5----------------|--2--2----2----2-------|----------------------|
----------------------|------------------5----|--3------3----3--3----|

---------------------|----------------------|----------------------|
---------------------|----------------------|---------3----3--2----|
---------------------|----------------------|----------------------|
--4------0------4----|--5------5----5--3----|--1-------------------|

------------7---------|------------5---------|----------------------|
-----------------7----|-----------------5----|------------7---------|
--5--5----------------|--3--3----------------|-----------------7----|
----------------------|----------------------|--5--5----------------|

----------------------|------------7---------|------------5---------|
------------3---------|-----------------7----|-----------------5----|
-----------------3----|--5--5----------------|--3--3----------------|
--1--1----------------|----------------------|----------------------|

----------------------|----------------------|------------7---------|
------------7---------|------------3---------|-----------------7----|
-----------------7----|-----------------3----|--5--5----------------|
--5--5----------------|--1--1----------------|----------------------|

------------5---------|----------------------|----------------------|
-----------------5----|------------7---------|------------3---------|
--3--3----------------|-----------------7----|-----------------3----|
----------------------|--5--5----------------|--1--1----------------|

------------5---------|----------------------|----------------------|
-----------------5----|------------5---------|----------------------|
--3--3----------------|-----------------5----|----------------------|
----------------------|--3--3----------------|--5--5------3--3------|

----------------------|----------------------|----------------------|
------------3---------|------------3---------|----------------------|
----------------------|----------------------|--5------5----5--4----|
--1--1-----------1----|--1--1-----------1----|----------------------|

----------------------|----------------------|---------------------|
----------------------|----------------------|---------------------|
--2------2----2-------|----------------------|---------------------|
-----------------5----|--3------3----3--3----|--4------0------4----|

----------------------|----------------------|------------7---------|
----------------------|---------3----3--2----|-----------------7----|
----------------------|----------------------|--5--5----------------|
--5------5----5--3----|--1-------------------|----------------------|

------------7---------|-----------------------|----------------------|
-----------------7----|-----------------------|----------------------|
--5--5----------------|--2--2----2----2-------|----------------------|
----------------------|------------------5----|--3------3----3--3----|

---------------------|----------------------|----------------------|
---------------------|----------------------|---------3----3--2----|
---------------------|----------------------|----------------------|
--4------0------4----|--5------5----5--3----|--1-------------------|

-------------------|------------------||
-------------------|------------------||
--5----------------|------------------||
-------------------|------------------||




Ваше мнение



Капча