this song had seemed to dissapear for some time but i still think it is nice...
i searched so many websites, none had this.So,out of the kindness of my heart,
i shall revive this history...
HA!HA!HA!HA!HA!HA!HA!HA!HA!HA!...........
name:LAMELOSER
song:too serious too soon
e-mail:[email protected]
the song goes like this:
|-----------------------|-----------------------|---------|
|-----------------------|--------------1--------|---------|
|---2-2-2-0-2-----------|----2-2-2-0-2---2------|---------| x2
|-----------------------|-----------------------|--3-4-3--|
|-3---------------------|--3--------------------|---------|
|-----------------------|-----------------------|---------|
I wonder where u are...|i wonder what ur |i wonder... | (verse
|thinking of to night...| | one)
|-----------------------|-----------------------|------------|--------------
maybe ur alone... |maybe u are crying just|i wonder... | (verse
|like me... | | two)
|----------------------|------|-----------------|
|-------------1--------|------|-------------1-1-|
|---3-3-3-2-3---3--2~0-|-0-2--|---3-3-3-2-3-----|
|-2--------------------|------|-2---------------|
|----------------------|------|-----------------|
|----------------------|------|-----------------|
I dunno why i lost ur |maybe~|i wanted to be loved |
to~uch | | to much... |
-----------------------|------|---------------------|
:to coda
||:---1-0---0-1-|-1-0-0-1-0-0---|-1-0-0-1-0-1-----|
||:-1-----3-----|-------------3-|-----------------|
||:-------------|---------------|-----------------|
||:-------------|---------------|-----------------|
||:-------------|---------------|-----------------|
||:-------------|---------------|-----------------|
too serious | i wanted u to |i wanted u to care...
too soon | love me... |
|-----------------|
|-----------1-----|
|-3-3-3-2-3---2-0-| d.c. al coda
|-----------------|
|-----------------|
|-----------------|
for me like no one else before... |
coda:
|-5-3-3-5-0-3-1--1---|
|----------------0---|
|----------------0---|
|----------------0---|
|----------------0---|
|----------------0---|
i wanted u to love me~
|-----------------|---------------|----------------------1--|
|-----------------|---------------|----------------------1--|
|-----------3-3-2-|---------3-3-2-|-------3-3--3-2-0-----2--|
|-3-3-2-0-0-------|3--2-0-0-------|-3-2-0------------3-2-3--|
|-----------------|---------------|----------------------0--|
|-----------------|---------------|----------------------0--|
its been a rainy |now i'm staring|thinking that we got to se~ri~ous
af~ter~noon |at the moon |to soon~~~~~..........

it should sound great (unless its the player)and if u cant figure it out e-mail
me. thisa is th second piece i ever created




Ваше мнение



Капча