T1: Michael Gooding, [email protected], Garbage, When I Grow Up, ??
S1:
---===Intro===---
e: ---------------------------------------------
b: ---------------------------------------------
g: -------------9---------------------------9---
d: --7--9--10-------7--9--10-7---7--9--10------- x2
a: ---------------------------------------------
d: ---------------------------------------------
Verse - no guitar
---===Pre Chorus===---
e: ---------------------------------------------
b: ---------------------------------------------
g: --7--7------------------7--7-----------------
d: --7--7---7--7---9-11----7--7---7--7---9-11---
a: --5--5---7--7---9-11----5--5---7--7---9-11---
d: ---------7--7---9-11-----------7--7---9-11---
When I grow up... When I grow up...
---===Chorus===---
Guitar 1
e:----------------------------------------------
b:------------------------8---------------------
g:--------7--10--------7-----------7-10---7-----
d:--7--9---------7--9--------7--9-------9---9-7-
a:----------------------------------------------
d:----------------------------------------------
Guitar 2
e: ---------------------------------------------
b: ---------------------------------------------
g: ---------------------------------------------
d: --7-7-7-7--7-7-7-7----2-2-2-2--2-2-2-2-------
a: --7-7-7-7--7-7-7-7----2-2-2-2--2-2-2-2-------
d: --7-7-7-7--7-7-7-7----2-2-2-2--2-2-2-2-------
e: ---------------------------------------------
b: ---------------------------------------------
g: ---------------------------------------------
d: --9-9-9-9--9-9-9-9----0-0-0-0--0-0-0-0-------
a: --9-9-9-9--9-9-9-9----0-0-0-0--0-0-0-0-------
d: --9-9-9-9--9-9-9-9----0-0-0-0--0-0-0-0-------




Ваше мнение



Капча