Garbage - So Like A Rose
Tabbed By: Myke
EMail: [email protected]
Standard Tuning
Verse 1:
|------------------------------------------------|
|------------------------------------------------|
|--------------------------2--x-2--x--2--x-2--x--|
|--2--x-2--x--2--x-2--x----2--x-2--x--2--x-2--x--|
|--2--x-2--x--2--x-2--x----0--x-0--x--0--x-0--x--|
|--0--x-0--x--0--x-0--x--------------------------|
Chorus:
|--3------5------3------5-------|
|---3------5------3------5------|
|----4------6------4------6-----|
|-----5------7------5------7----|
|------5------7------5------7---|
|-------3------5------3------5--|
Outro (Guitar 1):
|------------------------------------------------|
|--------------------------2--x-2--x--2--x-2--x--|
|--1--x-1--x--1--x-1--x----2--x-2--x--2--x-2--x--|
|--2--x-2--x--2--x-2--x----2--x-2--x--2--x-2--x--|
|--2--x-2--x--2--x-2--x----0--x-0--x--0--x-0--x--|
|--0--x-0--x--0--x-0--x--------------------------|
Outro (Guitar 2):
|------------------------------------------------|
|------------------------------------------------|
|--------------------------2--x-2--x--2--x-2--x--|
|--2--x-2--x--2--x-2--x----2--x-2--x--2--x-2--x--|
|--2--x-2--x--2--x-2--x----0--x-0--x--0--x-0--x--|
|--0--x-0--x--0--x-0--x--------------------------|




Ваше мнение



Капча