Garbage - Push It
Tabbed By: Myke
EMail: [email protected]
Standard Tuning (b)
Intro/Verse:
|-------------------------------------------|
|-----13----13----13--------9----9----9-----|
|--10----10----10----10--10---10---10---10--|
|-------------------------------------------|
|-------------------------------------------|
|-------------------------------------------|
|------------------------------------------|
|-----11----11----11-------11---11---11----|
|--10----10----10----10--8----8----8----8--|
|------------------------------------------|
|------------------------------------------|
|------------------------------------------|
Pre-Chorus:
|--------------------|
|--------------------|
|--3----5----6----8--|
|--3----5----6----8--|
|--1----3----4----6--|
|--------------------|
Chorus (Guitar 1):
|--------------------|
|--------------------|
|-------6---------8--|
|--3----6----8----8--|
|--3----4----8----6--|
|--1---------6-------|
Chorus (Guitar 2):
|------------------------------------------------------------|
|-----12-13----9--11-9-11b12r11----------12-13----9-11-9-11--|
|--10-------10------------------10----10-------10------------|
|------------------------------------------------------------|
|------------------------------------------------------------|
|------------------------------------------------------------|
Verse 2:
|-------------------------------------|
|-------------------------------------|
|-----10-13-12--10-------10----8--12--|
|--10-----------------10----10--------|
|-------------------------------------|
|-------------------------------------|
Interlude:
|--13----13-13--13----11-11--|
|---x------------x-----------|
|--10-----------10-----------|
|----------------------------|
|----------------------------|
|----------------------------|
Bridge:
|-------------------------------------|
|-------------------------------------|
|-----10-13-12--10-------10----8--12--|
|--10-----------------10----10--------|
|-------------------------------------|
|-------------------------------------|
End On:
|--------|
|--------|
|--------|
|--3--3--|
|--3--3--|
|--1--1--|




Ваше мнение



Капча