Artist: Garbage
Song: #1 Crush
Album: Romeo + Juliet Soundtrack
Tabbed by: Pumpkinhead15
Tuning: Standard
Bass guitar and drums until....(0:35)
Riff 1 (distortion)
e|-----------
B|-----------
G|-----------
D|-----------
A|8------5---
E|6------3--- (then it's silent again as the drums and bass go on)
Then this starts at (1:05) and repeats until (1:45)
Riff 2 (clean with a little vibrato)
e|------------------------------------------------|
B|------------------------------------------------|
G|---7-----7-----7-----------7-----7-----7--------|
D|0-----6-----0-----6--7--0-----6-----0-----6--7--|
A|------------------------------------------------|
E|------------------------------------------------|
Riff 3(1:45)(distortion)
e|------------------------------------------------|
B|------------------------------------------------|
G|------------------------------------------------|
D|0/15-------1512------128-----8----8/12---12---|
A|0/13-------1310------106-----6----6/10--------|
E|------------------------------------------------|
(high-pitched feedback over the bass and drums)
Then Riff 3 again (2:57)
After that's over......that's pretty much it for defined guitar in this song.




Ваше мнение



Капча