t. See http://www.olga.net/faq/ for more information. #
Date: Mon, 27 Mar 2000 01:04:04 -0500
From: "Jon Beattie"
Subject: g/garbage/i_think_im_paranoid.tab
song: I Think I'm Paranoid
artist: Garbage
album: V2.0
author: Jon Beattie ([email protected])
This is how I think this song is played, I think it is fairly right.
each '-' represents 1 semiquaver (16th note)
_________________________
To Put The Song Together
Intro
Verse
Pre Chorus
Chorus
Intro
Verse
Pre Chorus
Chorus
Bridge1
Chorus
Bridge2
Outro
___________________________
This Is What happens in each of the Parts of The song
Intro
RIFF 1 X 2
with RIFF 3 on top (2nd time only)

Pre Chorus
with distortion
e|----------------|----------------|
B|----------------|----------------|
G|----------------|----------------|
D|5-----5-3-----3-|6-----6-3-----3-| X 3
A|5-----5-3-----3-|4-----4-1-----1-|
E|3-----3-1-----1-|4-----4-1-----1-|
I Think I'm Paranoid...
RIFF 2
e|----------------|----------------|----------------||
B|----------------|----------------|----------------||
G|----------------|----------------|----------------||
D|5-----5-3-----3-|6---6---6---6-3-|--3---3-3-3-3-3-||
A|5-----5-3-----3-|4---4---4---6-3-|--3---3-3-3-3-3-||
E|3-----3-1-----1-|4---4---4---4-1-|--1---1-1-1-1-1-||

Chorus
with distortion
e|----------------|----------------|----------------|----------------|
B|----------------|----------------|----------------|----------------|
G|3---------------|----------------|3---------------|7---------------|
D|3---------------|3---------------|3---------------|7---------------|
A|1---------------|3---------------|1---------------|5---------------|
E|----------------|1---------------|----------------|----------------|
Bend Me Breack Me...
e|----------------|----------------|----------------|----------------|
B|----------------|----------------|----------------|----------------|
G|3---------------|----------------|3---------------|7-7-7-7-7-7-7-7-|
D|3---------------|3---------------|3---------------|7---------------|
A|1---------------|3---------------|1---------------|5---------------|
E|----------------|1---------------|----------------|----------------|
e|----------------||
B|----------------||
G|7-7-7-7-7-7-7-7-||
D|----------------||
A|----------------||
E|----------------||

Bridge1
|----------------| |----------------|
|----------------| |----------------|
|9\---------/12\9| |5----------/12\9|
|9\---------/12\9| X 3 |5----------/12\9|
|7\---------/10\7| |3----------/10\7|
|----------------| |----------------|
|----------------| |----------------|----------------||
|----------------| |----------------|----------------||
|9\---------/12\9| |5---5---5---5-3-|3-3-3-3-3-------||
|9\---------/12\9| X 3 |5---5---5---5-3-|3-3-3-3-3-------||
|7\---------/10\7| |3---3---3---3-1-|1-1-1-1-1-------||
|----------------| |----------------|----------------||

Bridge2
RIFF 4
|----------------|----------------|----------------|----------------|
|----------------|----------------|----------------|----------------|
|----------------|----------------|----------------|----------------|
|5-----5-3-----3-|6-6-6-6-6-6-6-6-|5-----5-3-----3-|6-6-6-6-6-6-6-6-| X 4
|5-----5-3-----3-|6-6-6-6-6-6-6-6-|5-----5-3-----3-|6-6-6-6-6-6-6-6-|
|3-----3-1-----1-|4-4-4-4-4-4-4-4-|3-----3-1-----1-|4-4-4-4-4-4-4-4-|
Steal Me Deal Me...
Outro
RIFF 1 X 3
|part 1
e|----7-----------|----------------||
B|8-----8-10--6---|----------------||
G|--------------7-|----------------||
D|----------------|----------------||
A|----------------|----------------||
E|----------------|----------------||
|
|part 2
e|----------------|----------------||
B|--------------3-|----------------||
G|0---4-0---0-5---|0---------------||
D|----------------|----------------||
A|----------------|----------------||
E|----------------|----------------||
|
|part 3
e|----3---1-------|----------------||
B|------------1-3-|----------------||
G|----------------|----------------||
D|----------------|----------------||
A|----------------|----------------||
E|----------------|----------------||
It's Alright.
These Are some extra riffs which occur throughout the song.
RIFF 1
Riff 1 has three seperate parts to it which
overlap each other.
|part 1
e|----7-----------|----------------||
B|8-----8-10--6---|--8-----6---10--||
G|--------------7-|------7---------||
D|----------------|----------------||
A|----------------|----------------||
E|----------------|----------------||
|
|part 2
e|----------------|----------------||
B|--------------3-|--------------3-||
G|0---4-0---0-5---|0-4-0-4---0-5---||
D|----------------|----------------||
A|----------------|----------------||
E|----------------|----------------||
|
|part 3
e|----3---1-------|----------------||
B|------------1-3-|--3---0-1---3---||
G|----------------|----------------||
D|----------------|----------------||
A|----------------|----------------||
E|----------------|----------------||
RIFF 2
e|----5---6-----5-|--6-----5---6---||
B|4-----------4---|------4---------||
G|----------------|----------------||
D|----------------|----------------||
A|----------------|----------------||
E|----------------|----------------||
RIFF 3
e|--------1315----|13--------------||
B|------15--------|------15--------||
G|----------------|----------------||
D|----------------|----------------||
A|----------------|----------------||
E|----------------|----------------||
RIFF 4
e|----------------|--------11--11-10|
B|----11--13b---11|----11-----------|
G|--12--12----12--|--12--12---------|
D|----------------|-----------------|
A|----------------|-----------------|
E|----------------|-----------------|
Comments, suggestions or corrections welcome.




Ваше мнение



Капча